  0
SECTION
  2
HEADER
  9
$ACADVER
  1
AC1015
  9
$ACADMAINTVER
 70
     6
  9
$DWGCODEPAGE
  3
ANSI_1254
  9
$INSBASE
 10
0.0
 20
0.0
 30
0.0
  9
$EXTMIN
 10
0.0
 20
0.0
 30
0.0
  9
$EXTMAX
 10
279.4
 20
215.9
 30
0.0
  9
$LIMMIN
 10
0.0
 20
0.0
  9
$LIMMAX
 10
279.4
 20
215.9
  9
$ORTHOMODE
 70
     0
  9
$REGENMODE
 70
     1
  9
$FILLMODE
 70
     1
  9
$QTEXTMODE
 70
     0
  9
$MIRRTEXT
 70
     1
  9
$LTSCALE
 40
1.0
  9
$ATTMODE
 70
     1
  9
$TEXTSIZE
 40
3.5
  9
$TRACEWID
 40
1.0
  9
$TEXTSTYLE
  7
Standard
  9
$CLAYER
  8
0
  9
$CELTYPE
  6
ByLayer
  9
$CECOLOR
 62
   256
  9
$CELTSCALE
 40
1.0
  9
$DISPSILH
 70
     0
  9
$DIMSCALE
 40
1.0
  9
$DIMASZ
 40
3.5
  9
$DIMEXO
 40
1.0
  9
$DIMDLI
 40
3.75
  9
$DIMRND
 40
0.0
  9
$DIMDLE
 40
0.0
  9
$DIMEXE
 40
1.0
  9
$DIMTP
 40
0.0
  9
$DIMTM
 40
0.0
  9
$DIMTXT
 40
3.5
  9
$DIMCEN
 40
2.5
  9
$DIMTSZ
 40
0.0
  9
$DIMTOL
 70
     0
  9
$DIMLIM
 70
     0
  9
$DIMTIH
 70
     1
  9
$DIMTOH
 70
     1
  9
$DIMSE1
 70
     0
  9
$DIMSE2
 70
     0
  9
$DIMTAD
 70
     1
  9
$DIMZIN
 70
     0
  9
$DIMBLK
  1

  9
$DIMASO
 70
     1
  9
$DIMSHO
 70
     1
  9
$DIMPOST
  1

  9
$DIMAPOST
  1

  9
$DIMALT
 70
     0
  9
$DIMALTD
 70
     3
  9
$DIMALTF
 40
0.0393700787
  9
$DIMLFAC
 40
1.0
  9
$DIMTOFL
 70
     1
  9
$DIMTVP
 40
0.0
  9
$DIMTIX
 70
     0
  9
$DIMSOXD
 70
     0
  9
$DIMSAH
 70
     0
  9
$DIMBLK1
  1

  9
$DIMBLK2
  1

  9
$DIMSTYLE
  2
ISO-25
  9
$DIMCLRD
 70
     0
  9
$DIMCLRE
 70
     0
  9
$DIMCLRT
 70
     0
  9
$DIMTFAC
 40
1.0
  9
$DIMGAP
 40
1.524
  9
$DIMJUST
 70
     0
  9
$DIMSD1
 70
     0
  9
$DIMSD2
 70
     0
  9
$DIMTOLJ
 70
     0
  9
$DIMTZIN
 70
     0
  9
$DIMALTZ
 70
     0
  9
$DIMALTTZ
 70
     0
  9
$DIMUPT
 70
     0
  9
$DIMDEC
 70
     2
  9
$DIMTDEC
 70
     2
  9
$DIMALTU
 70
     2
  9
$DIMALTTD
 70
     3
  9
$DIMTXSTY
  7
Standard
  9
$DIMAUNIT
 70
     0
  9
$DIMADEC
 70
     2
  9
$DIMALTRND
 40
0.0
  9
$DIMAZIN
 70
     0
  9
$DIMDSEP
 70
    44
  9
$DIMATFIT
 70
     3
  9
$DIMFRAC
 70
     0
  9
$DIMLDRBLK
  1

  9
$DIMLUNIT
 70
     2
  9
$DIMLWD
 70
    -2
  9
$DIMLWE
 70
    -2
  9
$DIMTMOVE
 70
     0
  9
$LUNITS
 70
     2
  9
$LUPREC
 70
     2
  9
$SKETCHINC
 40
1.0
  9
$FILLETRAD
 40
10.0
  9
$AUNITS
 70
     0
  9
$AUPREC
 70
     2
  9
$MENU
  1
.
  9
$ELEVATION
 40
0.0
  9
$PELEVATION
 40
0.0
  9
$THICKNESS
 40
0.0
  9
$LIMCHECK
 70
     0
  9
$CHAMFERA
 40
0.0
  9
$CHAMFERB
 40
0.0
  9
$CHAMFERC
 40
0.0
  9
$CHAMFERD
 40
0.0
  9
$SKPOLY
 70
     0
  9
$TDCREATE
 40
2459741.588604132
  9
$TDUCREATE
 40
2459741.463604132
  9
$TDUPDATE
 40
2459741.588605567
  9
$TDUUPDATE
 40
2459741.463605567
  9
$TDINDWG
 40
0.0000000116
  9
$TDUSRTIMER
 40
0.0000000116
  9
$USRTIMER
 70
     1
  9
$ANGBASE
 50
0.0
  9
$ANGDIR
 70
     0
  9
$PDMODE
 70
     0
  9
$PDSIZE
 40
-1.0
  9
$PLINEWID
 40
0.0
  9
$SPLFRAME
 70
     0
  9
$SPLINETYPE
 70
     6
  9
$SPLINESEGS
 70
     8
  9
$HANDSEED
  5
126
  9
$SURFTAB1
 70
     6
  9
$SURFTAB2
 70
     6
  9
$SURFTYPE
 70
     6
  9
$SURFU
 70
     6
  9
$SURFV
 70
     6
  9
$UCSBASE
  2

  9
$UCSNAME
  2

  9
$UCSORG
 10
0.0
 20
0.0
 30
0.0
  9
$UCSXDIR
 10
1.0
 20
0.0
 30
0.0
  9
$UCSYDIR
 10
0.0
 20
1.0
 30
0.0
  9
$UCSORTHOREF
  2

  9
$UCSORTHOVIEW
 70
     0
  9
$UCSORGTOP
 10
0.0
 20
0.0
 30
0.0
  9
$UCSORGBOTTOM
 10
0.0
 20
0.0
 30
0.0
  9
$UCSORGLEFT
 10
0.0
 20
0.0
 30
0.0
  9
$UCSORGRIGHT
 10
0.0
 20
0.0
 30
0.0
  9
$UCSORGFRONT
 10
0.0
 20
0.0
 30
0.0
  9
$UCSORGBACK
 10
0.0
 20
0.0
 30
0.0
  9
$PUCSBASE
  2

  9
$PUCSNAME
  2

  9
$PUCSORG
 10
0.0
 20
0.0
 30
0.0
  9
$PUCSXDIR
 10
1.0
 20
0.0
 30
0.0
  9
$PUCSYDIR
 10
0.0
 20
1.0
 30
0.0
  9
$PUCSORTHOREF
  2

  9
$PUCSORTHOVIEW
 70
     0
  9
$PUCSORGTOP
 10
0.0
 20
0.0
 30
0.0
  9
$PUCSORGBOTTOM
 10
0.0
 20
0.0
 30
0.0
  9
$PUCSORGLEFT
 10
0.0
 20
0.0
 30
0.0
  9
$PUCSORGRIGHT
 10
0.0
 20
0.0
 30
0.0
  9
$PUCSORGFRONT
 10
0.0
 20
0.0
 30
0.0
  9
$PUCSORGBACK
 10
0.0
 20
0.0
 30
0.0
  9
$USERI1
 70
     0
  9
$USERI2
 70
     0
  9
$USERI3
 70
     0
  9
$USERI4
 70
     0
  9
$USERI5
 70
     0
  9
$USERR1
 40
0.0
  9
$USERR2
 40
0.0
  9
$USERR3
 40
0.0
  9
$USERR4
 40
0.0
  9
$USERR5
 40
0.0
  9
$WORLDVIEW
 70
     1
  9
$SHADEDGE
 70
     3
  9
$SHADEDIF
 70
    70
  9
$TILEMODE
 70
     1
  9
$MAXACTVP
 70
    64
  9
$PINSBASE
 10
0.0
 20
0.0
 30
0.0
  9
$PLIMCHECK
 70
     0
  9
$PEXTMIN
 10
1.0000000000E+20
 20
1.0000000000E+20
 30
1.0000000000E+20
  9
$PEXTMAX
 10
-1.0000000000E+20
 20
-1.0000000000E+20
 30
-1.0000000000E+20
  9
$PLIMMIN
 10
0.0
 20
0.0
  9
$PLIMMAX
 10
420.0
 20
297.0
  9
$UNITMODE
 70
     0
  9
$VISRETAIN
 70
     1
  9
$PLINEGEN
 70
     0
  9
$PSLTSCALE
 70
     1
  9
$TREEDEPTH
 70
  3020
  9
$CMLSTYLE
  2
Standard
  9
$CMLJUST
 70
     0
  9
$CMLSCALE
 40
20.0
  9
$PROXYGRAPHICS
 70
     1
  9
$MEASUREMENT
 70
     1
  9
$CELWEIGHT
370
    -1
  9
$ENDCAPS
280
     0
  9
$JOINSTYLE
280
     0
  9
$LWDISPLAY
290
     1
  9
$INSUNITS
 70
     4
  9
$HYPERLINKBASE
  1

  9
$STYLESHEET
  1

  9
$XEDIT
290
     1
  9
$CEPSNTYPE
380
     0
  9
$PSTYLEMODE
290
     1
  9
$FINGERPRINTGUID
  2
{d4d13ca5-c3dd-4767-a35c-efb76c0a5190}
  9
$VERSIONGUID
  2
{FAEB1C32-E019-11D5-929B-00C0DF256EC4}
  9
$EXTNAMES
290
     1
  9
$PSVPSCALE
 40
0.0
  9
$OLESTARTUP
290
     0
  0
ENDSEC
  0
SECTION
  2
CLASSES
  0
CLASS
  1
ACDBDICTIONARYWDFLT
  2
AcDbDictionaryWithDefault
  3
ObjectDBX Classes
 90
        0
280
     0
281
     0
  0
CLASS
  1
VISUALSTYLE
  2
AcDbVisualStyle
  3
ObjectDBX Classes
 90
     4095
280
     0
281
     0
  0
CLASS
  1
MATERIAL
  2
AcDbMaterial
  3
ObjectDBX Classes
 90
     1153
280
     0
281
     0
  0
CLASS
  1
SCALE
  2
AcDbScale
  3
ObjectDBX Classes
 90
     1153
280
     0
281
     0
  0
CLASS
  1
TABLESTYLE
  2
AcDbTableStyle
  3
ObjectDBX Classes
 90
     4095
280
     0
281
     0
  0
CLASS
  1
MLEADERSTYLE
  2
AcDbMLeaderStyle
  3
ACDB_MLEADERSTYLE_CLASS
 90
     4095
280
     0
281
     0
  0
CLASS
  1
SUN
  2
AcDbSun
  3
SCENEOE
 90
     1153
280
     0
281
     0
  0
CLASS
  1
ACDBPLACEHOLDER
  2
AcDbPlaceHolder
  3
ObjectDBX Classes
 90
        0
280
     0
281
     0
  0
CLASS
  1
LAYOUT
  2
AcDbLayout
  3
ObjectDBX Classes
 90
        0
280
     0
281
     0
  0
ENDSEC
  0
SECTION
  2
TABLES
  0
TABLE
  2
VPORT
  5
8
330
0
100
AcDbSymbolTable
 70
     1
  0
VPORT
  5
29
330
8
100
AcDbSymbolTableRecord
100
AcDbViewportTableRecord
  2
*Active
 70
     0
 10
0.0
 20
0.0
 11
1.0
 21
1.0
 12
139.7
 22
107.95
 13
0.0
 23
0.0
 14
10.0
 24
10.0
 15
10.0
 25
10.0
 16
0.0
 26
0.0
 36
1.0
 17
0.0
 27
0.0
 37
0.0
 40
215.9
 41
1.2941176471
 42
50.0
 43
0.0
 44
0.0
 50
0.0
 51
0.0
 71
     0
 72
  2000
 73
     1
 74
     3
 75
     0
 76
     0
 77
     0
 78
     0
281
     0
 65
     1
110
0.0
120
0.0
130
0.0
111
1.0
121
0.0
131
0.0
112
0.0
122
1.0
132
0.0
 79
     0
146
0.0
  0
ENDTAB
  0
TABLE
  2
LTYPE
  5
5
330
0
100
AcDbSymbolTable
 70
     6
  0
LTYPE
  5
14
330
5
100
AcDbSymbolTableRecord
100
AcDbLinetypeTableRecord
  2
ByBlock
 70
     0
  3

 72
    65
 73
     0
 40
0.0
  0
LTYPE
  5
15
330
5
100
AcDbSymbolTableRecord
100
AcDbLinetypeTableRecord
  2
ByLayer
 70
     0
  3

 72
    65
 73
     0
 40
0.0
  0
LTYPE
  5
16
330
5
100
AcDbSymbolTableRecord
100
AcDbLinetypeTableRecord
  2
Continuous
 70
     0
  3
Solid line
 72
    65
 73
     0
 40
0.0
  0
LTYPE
  5
6E
330
5
100
AcDbSymbolTableRecord
100
AcDbLinetypeTableRecord
  2
HIDDEN
 70
     0
  3
Hidden __ __ __ __ __ __ __ __ __ __ __ __ __ __
 72
    65
 73
     2
 40
1.905
 49
1.27
 74
     0
 49
-0.635
 74
     0
  0
LTYPE
  5
6F
330
5
100
AcDbSymbolTableRecord
100
AcDbLinetypeTableRecord
  2
PHANTOM
 70
     0
  3
Phantom ______  __  __  ______  __  __  ______
 72
    65
 73
     6
 40
12.7
 49
6.35
 74
     0
 49
-1.27
 74
     0
 49
1.27
 74
     0
 49
-1.27
 74
     0
 49
1.27
 74
     0
 49
-1.27
 74
     0
  0
LTYPE
  5
70
330
5
100
AcDbSymbolTableRecord
100
AcDbLinetypeTableRecord
  2
CENTER
 70
     0
  3
Center ____ _ ____ _ ____ _ ____ _ ____ _ ____
 72
    65
 73
     4
 40
10.16
 49
6.35
 74
     0
 49
-1.27
 74
     0
 49
1.27
 74
     0
 49
-1.27
 74
     0
  0
LTYPE
  5
71
330
5
100
AcDbSymbolTableRecord
100
AcDbLinetypeTableRecord
  2
CENTERX2
 70
     0
  3
Center (2x) ________  __  ________  __  _____
 72
    65
 73
     4
 40
20.32
 49
12.7
 74
     0
 49
-2.54
 74
     0
 49
2.54
 74
     0
 49
-2.54
 74
     0
  0
LTYPE
  5
72
330
5
100
AcDbSymbolTableRecord
100
AcDbLinetypeTableRecord
  2
DOT2
 70
     0
  3
Dot (.5x) ........................................
 72
    65
 73
     2
 40
0.635
 49
0.0
 74
     0
 49
-0.635
 74
     0
  0
ENDTAB
  0
TABLE
  2
LAYER
  5
2
330
0
100
AcDbSymbolTable
 70
    17
  0
LAYER
  5
10
330
2
100
AcDbSymbolTableRecord
100
AcDbLayerTableRecord
  2
0
 70
     0
 62
     7
  6
Continuous
370
    -3
390
F
  0
LAYER
  5
73
330
2
100
AcDbSymbolTableRecord
100
AcDbLayerTableRecord
  2
FORMAT
 70
     0
 62
     7
  6
Continuous
370
    -3
390
F
  0
LAYER
  5
74
330
2
100
AcDbSymbolTableRecord
100
AcDbLayerTableRecord
  2
YARDIMCI_GEOMETRI
 70
     0
 62
    -6
  6
Continuous
290
     0
370
    -3
390
F
  0
LAYER
  5
75
330
2
100
AcDbSymbolTableRecord
100
AcDbLayerTableRecord
  2
SAYFA_CERCEVESI
 70
     0
 62
     7
  6
Continuous
370
    25
390
F
  0
LAYER
  5
76
330
2
100
AcDbSymbolTableRecord
100
AcDbLayerTableRecord
  2
ANTET
 70
     0
 62
     7
  6
Continuous
370
    -3
390
F
  0
LAYER
  5
77
330
2
100
AcDbSymbolTableRecord
100
AcDbLayerTableRecord
  2
OLCU
 70
     0
 62
   150
  6
Continuous
370
    -3
390
F
  0
LAYER
  5
78
330
2
100
AcDbSymbolTableRecord
100
AcDbLayerTableRecord
  2
METIN
 70
     0
 62
    96
  6
Continuous
370
    -3
390
F
  0
LAYER
  5
79
330
2
100
AcDbSymbolTableRecord
100
AcDbLayerTableRecord
  2
BALON
 70
     0
 62
     5
  6
Continuous
370
    -3
390
F
  0
LAYER
  5
7A
330
2
100
AcDbSymbolTableRecord
100
AcDbLayerTableRecord
  2
VURGU
 70
     0
 62
     7
  6
Continuous
370
    -3
390
F
  0
LAYER
  5
7B
330
2
100
AcDbSymbolTableRecord
100
AcDbLayerTableRecord
  2
SILIK
 70
     0
 62
     7
  6
Continuous
370
    -3
390
F
  0
LAYER
  5
7C
330
2
100
AcDbSymbolTableRecord
100
AcDbLayerTableRecord
  2
MODEL
 70
     0
 62
     7
  6
Continuous
370
    -3
390
F
  0
LAYER
  5
7D
330
2
100
AcDbSymbolTableRecord
100
AcDbLayerTableRecord
  2
DETAYLANDıRMA
 70
     0
 62
   190
  6
Continuous
370
    -3
390
F
  0
LAYER
  5
7E
330
2
100
AcDbSymbolTableRecord
100
AcDbLayerTableRecord
  2
TOLERANS
 70
     0
 62
   230
  6
Continuous
370
    -3
390
F
  0
LAYER
  5
7F
330
2
100
AcDbSymbolTableRecord
100
AcDbLayerTableRecord
  2
MERKEZ_CIZGILERI
 70
     0
 62
    30
  6
Continuous
370
    -3
390
F
  0
LAYER
  5
80
330
2
100
AcDbSymbolTableRecord
100
AcDbLayerTableRecord
  2
KESIT-DETAY_CIZGILERI
 70
     0
 62
     7
  6
Continuous
370
    -3
390
F
  0
LAYER
  5
81
330
2
100
AcDbSymbolTableRecord
100
AcDbLayerTableRecord
  2
\U+041E\U+0421\U+0415\U+0412\U+042B\U+0415
 70
     0
 62
     7
  6
Continuous
370
    -3
390
F
  0
LAYER
  5
82
330
2
100
AcDbSymbolTableRecord
100
AcDbLayerTableRecord
  2
\U+0412\U+041E\U+0414\U+042F\U+041D\U+042B\U+0415_\U+0417\U+041D\U+0410\U+041A\U+0418
 70
     0
 62
    11
  6
Continuous
370
    -3
390
F
  0
ENDTAB
  0
TABLE
  2
STYLE
  5
3
330
0
100
AcDbSymbolTable
 70
     1
  0
STYLE
  5
11
330
3
100
AcDbSymbolTableRecord
100
AcDbTextStyleTableRecord
  2
Standard
 70
     0
 40
0.0
 41
1.0
 50
0.0
 71
     0
 42
3.5
  3
txt
  4

  0
ENDTAB
  0
TABLE
  2
VIEW
  5
6
330
0
100
AcDbSymbolTable
 70
     0
  0
ENDTAB
  0
TABLE
  2
UCS
  5
7
330
0
100
AcDbSymbolTable
 70
     0
  0
ENDTAB
  0
TABLE
  2
APPID
  5
9
330
0
100
AcDbSymbolTable
 70
     1
  0
APPID
  5
12
330
9
100
AcDbSymbolTableRecord
100
AcDbRegAppTableRecord
  2
ACAD
 70
     0
  0
ENDTAB
  0
TABLE
  2
DIMSTYLE
  5
A
330
0
100
AcDbSymbolTable
 70
     1
100
AcDbDimStyleTable
  0
DIMSTYLE
105
27
330
A
100
AcDbSymbolTableRecord
100
AcDbDimStyleTableRecord
  2
ISO-25
 70
     0
 41
2.5
 42
0.625
 43
3.75
 44
1.25
 73
     0
 74
     0
 77
     1
 78
     8
140
2.5
141
2.5
143
0.0393700787
147
0.625
171
     3
172
     1
178
     0
271
     2
272
     2
274
     3
278
    44
283
     0
284
     8
340
11
  0
ENDTAB
  0
TABLE
  2
BLOCK_RECORD
  5
1
330
0
100
AcDbSymbolTable
 70
     6
  0
BLOCK_RECORD
  5
1F
330
1
100
AcDbSymbolTableRecord
100
AcDbBlockTableRecord
  2
*Model_Space
340
22
  0
BLOCK_RECORD
  5
1B
330
1
100
AcDbSymbolTableRecord
100
AcDbBlockTableRecord
  2
*Paper_Space
340
1E
  0
BLOCK_RECORD
  5
23
330
1
100
AcDbSymbolTableRecord
100
AcDbBlockTableRecord
  2
*Paper_Space0
340
26
  0
BLOCK_RECORD
  5
8F
330
1
100
AcDbSymbolTableRecord
100
AcDbBlockTableRecord
  2
SW_CENTERMARKSYMBOL_0
340
0
102
{BLKREFS
331
9A
102
}
  0
BLOCK_RECORD
  5
9B
330
1
100
AcDbSymbolTableRecord
100
AcDbBlockTableRecord
  2
SW_CENTERMARKSYMBOL_1
340
0
102
{BLKREFS
331
A6
102
}
  0
BLOCK_RECORD
  5
A7
330
1
100
AcDbSymbolTableRecord
100
AcDbBlockTableRecord
  2
SW_CENTERMARKSYMBOL_2
340
0
102
{BLKREFS
331
B2
102
}
  0
BLOCK_RECORD
  5
B3
330
1
100
AcDbSymbolTableRecord
100
AcDbBlockTableRecord
  2
SW_CENTERMARKSYMBOL_3
340
0
102
{BLKREFS
331
BE
102
}
  0
BLOCK_RECORD
  5
BF
330
1
100
AcDbSymbolTableRecord
100
AcDbBlockTableRecord
  2
SW_CENTERMARKSYMBOL_4
340
0
102
{BLKREFS
331
CA
102
}
  0
ENDTAB
  0
ENDSEC
  0
SECTION
  2
BLOCKS
  0
BLOCK
  5
20
330
1F
100
AcDbEntity
  8
0
100
AcDbBlockBegin
  2
*Model_Space
 70
     0
 10
0.0
 20
0.0
 30
0.0
  3
*Model_Space
  1

  0
ENDBLK
  5
21
330
1F
100
AcDbEntity
  8
0
100
AcDbBlockEnd
  0
BLOCK
  5
1C
330
1B
100
AcDbEntity
 67
     1
  8
0
100
AcDbBlockBegin
  2
*Paper_Space
 70
     0
 10
0.0
 20
0.0
 30
0.0
  3
*Paper_Space
  1

  0
ENDBLK
  5
1D
330
1B
100
AcDbEntity
 67
     1
  8
0
100
AcDbBlockEnd
  0
BLOCK
  5
24
330
23
100
AcDbEntity
  8
0
100
AcDbBlockBegin
  2
*Paper_Space0
 70
     0
 10
0.0
 20
0.0
 30
0.0
  3
*Paper_Space0
  1

  0
ENDBLK
  5
25
330
23
100
AcDbEntity
  8
0
100
AcDbBlockEnd
  0
BLOCK
  5
90
330
8F
100
AcDbEntity
  8
0
100
AcDbBlockBegin
  2
SW_CENTERMARKSYMBOL_0
 70
     0
 10
0.0
 20
0.0
 30
0.0
  3
SW_CENTERMARKSYMBOL_0
  1

  0
LINE
  5
92
330
8F
100
AcDbEntity
  8
FORMAT
 62
     0
100
AcDbLine
 10
0.0
 20
0.0
 30
0.0
 11
0.0
 21
2.5
 31
0.0
  0
LINE
  5
93
330
8F
100
AcDbEntity
  8
FORMAT
 62
     0
100
AcDbLine
 10
0.0
 20
0.0
 30
0.0
 11
-2.5
 21
0.0
 31
0.0
  0
LINE
  5
94
330
8F
100
AcDbEntity
  8
FORMAT
 62
     0
100
AcDbLine
 10
0.0
 20
0.0
 30
0.0
 11
0.0
 21
-2.5
 31
0.0
  0
LINE
  5
95
330
8F
100
AcDbEntity
  8
FORMAT
 62
     0
100
AcDbLine
 10
0.0
 20
0.0
 30
0.0
 11
2.5
 21
0.0
 31
0.0
  0
LINE
  5
96
330
8F
100
AcDbEntity
  8
FORMAT
 62
     0
100
AcDbLine
 10
0.0
 20
5.0
 30
0.0
 11
0.0
 21
50.0
 31
0.0
  0
LINE
  5
97
330
8F
100
AcDbEntity
  8
FORMAT
 62
     0
100
AcDbLine
 10
-5.0
 20
0.0
 30
0.0
 11
-50.0
 21
0.0
 31
0.0
  0
LINE
  5
98
330
8F
100
AcDbEntity
  8
FORMAT
 62
     0
100
AcDbLine
 10
0.0
 20
-5.0
 30
0.0
 11
0.0
 21
-50.0
 31
0.0
  0
LINE
  5
99
330
8F
100
AcDbEntity
  8
FORMAT
 62
     0
100
AcDbLine
 10
5.0
 20
0.0
 30
0.0
 11
50.0
 21
0.0
 31
0.0
  0
ENDBLK
  5
91
330
8F
100
AcDbEntity
  8
0
100
AcDbBlockEnd
  0
BLOCK
  5
9C
330
9B
100
AcDbEntity
  8
0
100
AcDbBlockBegin
  2
SW_CENTERMARKSYMBOL_1
 70
     0
 10
0.0
 20
0.0
 30
0.0
  3
SW_CENTERMARKSYMBOL_1
  1

  0
LINE
  5
9E
330
9B
100
AcDbEntity
  8
FORMAT
 62
     0
100
AcDbLine
 10
0.0
 20
0.0
 30
0.0
 11
0.0
 21
2.5
 31
0.0
  0
LINE
  5
9F
330
9B
100
AcDbEntity
  8
FORMAT
 62
     0
100
AcDbLine
 10
0.0
 20
0.0
 30
0.0
 11
-2.5
 21
0.0
 31
0.0
  0
LINE
  5
A0
330
9B
100
AcDbEntity
  8
FORMAT
 62
     0
100
AcDbLine
 10
0.0
 20
0.0
 30
0.0
 11
0.0
 21
-2.5
 31
0.0
  0
LINE
  5
A1
330
9B
100
AcDbEntity
  8
FORMAT
 62
     0
100
AcDbLine
 10
0.0
 20
0.0
 30
0.0
 11
2.5
 21
0.0
 31
0.0
  0
LINE
  5
A2
330
9B
100
AcDbEntity
  8
FORMAT
 62
     0
100
AcDbLine
 10
0.0
 20
5.0
 30
0.0
 11
0.0
 21
10.5
 31
0.0
  0
LINE
  5
A3
330
9B
100
AcDbEntity
  8
FORMAT
 62
     0
100
AcDbLine
 10
-5.0
 20
0.0
 30
0.0
 11
-10.5
 21
0.0
 31
0.0
  0
LINE
  5
A4
330
9B
100
AcDbEntity
  8
FORMAT
 62
     0
100
AcDbLine
 10
0.0
 20
-5.0
 30
0.0
 11
0.0
 21
-10.5
 31
0.0
  0
LINE
  5
A5
330
9B
100
AcDbEntity
  8
FORMAT
 62
     0
100
AcDbLine
 10
5.0
 20
0.0
 30
0.0
 11
10.5
 21
0.0
 31
0.0
  0
ENDBLK
  5
9D
330
9B
100
AcDbEntity
  8
0
100
AcDbBlockEnd
  0
BLOCK
  5
A8
330
A7
100
AcDbEntity
  8
0
100
AcDbBlockBegin
  2
SW_CENTERMARKSYMBOL_2
 70
     0
 10
0.0
 20
0.0
 30
0.0
  3
SW_CENTERMARKSYMBOL_2
  1

  0
LINE
  5
AA
330
A7
100
AcDbEntity
  8
FORMAT
 62
     0
100
AcDbLine
 10
0.0
 20
0.0
 30
0.0
 11
0.0
 21
2.5
 31
0.0
  0
LINE
  5
AB
330
A7
100
AcDbEntity
  8
FORMAT
 62
     0
100
AcDbLine
 10
0.0
 20
0.0
 30
0.0
 11
-2.5
 21
0.0
 31
0.0
  0
LINE
  5
AC
330
A7
100
AcDbEntity
  8
FORMAT
 62
     0
100
AcDbLine
 10
0.0
 20
0.0
 30
0.0
 11
0.0
 21
-2.5
 31
0.0
  0
LINE
  5
AD
330
A7
100
AcDbEntity
  8
FORMAT
 62
     0
100
AcDbLine
 10
0.0
 20
0.0
 30
0.0
 11
2.5
 21
0.0
 31
0.0
  0
LINE
  5
AE
330
A7
100
AcDbEntity
  8
FORMAT
 62
     0
100
AcDbLine
 10
0.0
 20
5.0
 30
0.0
 11
0.0
 21
10.5
 31
0.0
  0
LINE
  5
AF
330
A7
100
AcDbEntity
  8
FORMAT
 62
     0
100
AcDbLine
 10
-5.0
 20
0.0
 30
0.0
 11
-10.5
 21
0.0
 31
0.0
  0
LINE
  5
B0
330
A7
100
AcDbEntity
  8
FORMAT
 62
     0
100
AcDbLine
 10
0.0
 20
-5.0
 30
0.0
 11
0.0
 21
-10.5
 31
0.0
  0
LINE
  5
B1
330
A7
100
AcDbEntity
  8
FORMAT
 62
     0
100
AcDbLine
 10
5.0
 20
0.0
 30
0.0
 11
10.5
 21
0.0
 31
0.0
  0
ENDBLK
  5
A9
330
A7
100
AcDbEntity
  8
0
100
AcDbBlockEnd
  0
BLOCK
  5
B4
330
B3
100
AcDbEntity
  8
0
100
AcDbBlockBegin
  2
SW_CENTERMARKSYMBOL_3
 70
     0
 10
0.0
 20
0.0
 30
0.0
  3
SW_CENTERMARKSYMBOL_3
  1

  0
LINE
  5
B6
330
B3
100
AcDbEntity
  8
FORMAT
 62
     0
100
AcDbLine
 10
0.0
 20
0.0
 30
0.0
 11
0.0
 21
2.5
 31
0.0
  0
LINE
  5
B7
330
B3
100
AcDbEntity
  8
FORMAT
 62
     0
100
AcDbLine
 10
0.0
 20
0.0
 30
0.0
 11
-2.5
 21
0.0
 31
0.0
  0
LINE
  5
B8
330
B3
100
AcDbEntity
  8
FORMAT
 62
     0
100
AcDbLine
 10
0.0
 20
0.0
 30
0.0
 11
0.0
 21
-2.5
 31
0.0
  0
LINE
  5
B9
330
B3
100
AcDbEntity
  8
FORMAT
 62
     0
100
AcDbLine
 10
0.0
 20
0.0
 30
0.0
 11
2.5
 21
0.0
 31
0.0
  0
LINE
  5
BA
330
B3
100
AcDbEntity
  8
FORMAT
 62
     0
100
AcDbLine
 10
0.0
 20
5.0
 30
0.0
 11
0.0
 21
10.5
 31
0.0
  0
LINE
  5
BB
330
B3
100
AcDbEntity
  8
FORMAT
 62
     0
100
AcDbLine
 10
-5.0
 20
0.0
 30
0.0
 11
-10.5
 21
0.0
 31
0.0
  0
LINE
  5
BC
330
B3
100
AcDbEntity
  8
FORMAT
 62
     0
100
AcDbLine
 10
0.0
 20
-5.0
 30
0.0
 11
0.0
 21
-10.5
 31
0.0
  0
LINE
  5
BD
330
B3
100
AcDbEntity
  8
FORMAT
 62
     0
100
AcDbLine
 10
5.0
 20
0.0
 30
0.0
 11
10.5
 21
0.0
 31
0.0
  0
ENDBLK
  5
B5
330
B3
100
AcDbEntity
  8
0
100
AcDbBlockEnd
  0
BLOCK
  5
C0
330
BF
100
AcDbEntity
  8
0
100
AcDbBlockBegin
  2
SW_CENTERMARKSYMBOL_4
 70
     0
 10
0.0
 20
0.0
 30
0.0
  3
SW_CENTERMARKSYMBOL_4
  1

  0
LINE
  5
C2
330
BF
100
AcDbEntity
  8
FORMAT
 62
     0
100
AcDbLine
 10
0.0
 20
0.0
 30
0.0
 11
0.0
 21
2.5
 31
0.0
  0
LINE
  5
C3
330
BF
100
AcDbEntity
  8
FORMAT
 62
     0
100
AcDbLine
 10
0.0
 20
0.0
 30
0.0
 11
-2.5
 21
0.0
 31
0.0
  0
LINE
  5
C4
330
BF
100
AcDbEntity
  8
FORMAT
 62
     0
100
AcDbLine
 10
0.0
 20
0.0
 30
0.0
 11
0.0
 21
-2.5
 31
0.0
  0
LINE
  5
C5
330
BF
100
AcDbEntity
  8
FORMAT
 62
     0
100
AcDbLine
 10
0.0
 20
0.0
 30
0.0
 11
2.5
 21
0.0
 31
0.0
  0
LINE
  5
C6
330
BF
100
AcDbEntity
  8
FORMAT
 62
     0
100
AcDbLine
 10
0.0
 20
5.0
 30
0.0
 11
0.0
 21
10.5
 31
0.0
  0
LINE
  5
C7
330
BF
100
AcDbEntity
  8
FORMAT
 62
     0
100
AcDbLine
 10
-5.0
 20
0.0
 30
0.0
 11
-10.5
 21
0.0
 31
0.0
  0
LINE
  5
C8
330
BF
100
AcDbEntity
  8
FORMAT
 62
     0
100
AcDbLine
 10
0.0
 20
-5.0
 30
0.0
 11
0.0
 21
-10.5
 31
0.0
  0
LINE
  5
C9
330
BF
100
AcDbEntity
  8
FORMAT
 62
     0
100
AcDbLine
 10
5.0
 20
0.0
 30
0.0
 11
10.5
 21
0.0
 31
0.0
  0
ENDBLK
  5
C1
330
BF
100
AcDbEntity
  8
0
100
AcDbBlockEnd
  0
ENDSEC
  0
SECTION
  2
ENTITIES
  0
CIRCLE
  5
83
330
1F
100
AcDbEntity
  8
0
  6
Continuous
 62
     7
370
    25
100
AcDbCircle
 10
140.1399820977
 20
78.7695702919
 30
0.0
 40
9.0
  0
CIRCLE
  5
84
330
1F
100
AcDbEntity
  8
0
  6
Continuous
 62
     7
370
    25
100
AcDbCircle
 10
140.1399820977
 20
139.2695702919
 30
0.0
 40
9.000000000000028
  0
CIRCLE
  5
85
330
1F
100
AcDbEntity
  8
0
  6
Continuous
 62
     7
370
    25
100
AcDbCircle
 10
140.1399820977
 20
109.0195702919
 30
0.0
 40
46.5
  0
CIRCLE
  5
86
330
1F
100
AcDbEntity
  8
0
  6
Continuous
 62
     7
370
    25
100
AcDbCircle
 10
140.1399820977
 20
109.0195702919
 30
0.0
 40
15.00000000000003
  0
CIRCLE
  5
87
330
1F
100
AcDbEntity
  8
0
  6
Continuous
 62
     7
370
    25
100
AcDbCircle
 10
170.3899820977
 20
109.0195702919
 30
0.0
 40
8.999999999999972
  0
CIRCLE
  5
88
330
1F
100
AcDbEntity
  8
0
  6
Continuous
 62
     7
370
    25
100
AcDbCircle
 10
109.8899820977
 20
109.0195702919
 30
0.0
 40
9.0
  0
CIRCLE
  5
89
330
1F
100
AcDbEntity
  8
0
  6
Continuous
 62
     7
370
    25
100
AcDbCircle
 10
140.1399820977
 20
109.0195702919
 30
0.0
 40
14.00000000000003
  0
CIRCLE
  5
8A
330
1F
100
AcDbEntity
  8
0
  6
Continuous
 62
     7
370
    25
100
AcDbCircle
 10
140.1399820977
 20
109.0195702919
 30
0.0
 40
47.5
  0
CIRCLE
  5
8B
330
1F
100
AcDbEntity
  8
0
  6
Continuous
 62
     7
370
    25
100
AcDbCircle
 10
140.1399820977
 20
139.2695702919
 30
0.0
 40
8.000000000000028
  0
CIRCLE
  5
8C
330
1F
100
AcDbEntity
  8
0
  6
Continuous
 62
     7
370
    25
100
AcDbCircle
 10
109.8899820977
 20
109.0195702919
 30
0.0
 40
8.0
  0
CIRCLE
  5
8D
330
1F
100
AcDbEntity
  8
0
  6
Continuous
 62
     7
370
    25
100
AcDbCircle
 10
170.3899820977
 20
109.0195702919
 30
0.0
 40
8.0
  0
CIRCLE
  5
8E
330
1F
100
AcDbEntity
  8
0
  6
Continuous
 62
     7
370
    25
100
AcDbCircle
 10
140.1399820977
 20
78.7695702919
 30
0.0
 40
8.0
  0
INSERT
  5
9A
330
1F
100
AcDbEntity
  8
FORMAT
 62
     7
100
AcDbBlockReference
  2
SW_CENTERMARKSYMBOL_0
 10
140.1399820977
 20
109.0195702919
 30
0.0
  0
INSERT
  5
A6
330
1F
100
AcDbEntity
  8
FORMAT
 62
     7
100
AcDbBlockReference
  2
SW_CENTERMARKSYMBOL_1
 10
140.1399820977
 20
139.2695702919
 30
0.0
  0
INSERT
  5
B2
330
1F
100
AcDbEntity
  8
FORMAT
 62
     7
100
AcDbBlockReference
  2
SW_CENTERMARKSYMBOL_2
 10
170.3899820977
 20
109.0195702919
 30
0.0
  0
INSERT
  5
BE
330
1F
100
AcDbEntity
  8
FORMAT
 62
     7
100
AcDbBlockReference
  2
SW_CENTERMARKSYMBOL_3
 10
140.1399820977
 20
78.7695702919
 30
0.0
  0
INSERT
  5
CA
330
1F
100
AcDbEntity
  8
FORMAT
 62
     7
100
AcDbBlockReference
  2
SW_CENTERMARKSYMBOL_4
 10
109.8899820977
 20
109.0195702919
 30
0.0
  0
ARC
  5
CB
330
1F
100
AcDbEntity
  8
0
  6
Continuous
 62
     7
370
    25
100
AcDbCircle
 10
14.6744931871
 20
62.5195702919
 30
0.0
 40
1.0
100
AcDbArc
 50
270.0
 51
0.0
  0
ARC
  5
CC
330
1F
100
AcDbEntity
  8
0
  6
Continuous
 62
     7
370
    25
100
AcDbCircle
 10
14.6744931871
 20
155.5195702919
 30
0.0
 40
1.0
100
AcDbArc
 50
0.0
 51
90.0
  0
LINE
  5
CD
330
1F
100
AcDbEntity
  8
0
  6
Continuous
 62
     7
370
    25
100
AcDbLine
 10
14.6744931871
 20
156.5195702919
 30
0.0
 11
4.6744931871
 21
156.5195702919
 31
0.0
  0
LINE
  5
CE
330
1F
100
AcDbEntity
  8
0
  6
Continuous
 62
     7
370
    25
100
AcDbLine
 10
4.6744931871
 20
61.5195702919
 30
0.0
 11
14.6744931871
 21
61.5195702919
 31
0.0
  0
ARC
  5
CF
330
1F
100
AcDbEntity
  8
0
  6
Continuous
 62
     7
370
    25
100
AcDbCircle
 10
4.6744931871
 20
62.5195702919
 30
0.0
 40
1.0
100
AcDbArc
 50
180.0
 51
270.0
  0
ARC
  5
D0
330
1F
100
AcDbEntity
  8
0
  6
Continuous
 62
     7
370
    25
100
AcDbCircle
 10
4.6744931871
 20
155.5195702919
 30
0.0
 40
1.0
100
AcDbArc
 50
90.0
 51
180.0
  0
LINE
  5
D1
330
1F
100
AcDbEntity
  8
0
  6
Continuous
 62
     7
370
    25
100
AcDbLine
 10
15.6744931871
 20
109.0195702919
 30
0.0
 11
15.6744931871
 21
62.5195702919
 31
0.0
  0
LINE
  5
D2
330
1F
100
AcDbEntity
  8
0
  6
Continuous
 62
     7
370
    25
100
AcDbLine
 10
15.6744931871
 20
155.5195702919
 30
0.0
 11
15.6744931871
 21
109.0195702919
 31
0.0
  0
LINE
  5
D3
330
1F
100
AcDbEntity
  8
0
  6
Continuous
 62
     7
370
    25
100
AcDbLine
 10
3.6744931871
 20
109.0195702919
 30
0.0
 11
3.6744931871
 21
155.5195702919
 31
0.0
  0
LINE
  5
D4
330
1F
100
AcDbEntity
  8
0
  6
Continuous
 62
     7
370
    25
100
AcDbLine
 10
3.6744931871
 20
62.5195702919
 30
0.0
 11
3.6744931871
 21
109.0195702919
 31
0.0
  0
LINE
  5
D5
330
1F
100
AcDbEntity
  8
0
  6
Continuous
 62
     1
370
    25
100
AcDbLine
 10
14.6744931871
 20
109.0195702919
 30
0.0
 11
14.6744931871
 21
156.5195702919
 31
0.0
  0
LINE
  5
D6
330
1F
100
AcDbEntity
  8
0
  6
Continuous
 62
     1
370
    25
100
AcDbLine
 10
14.6744931871
 20
61.5195702919
 30
0.0
 11
14.6744931871
 21
109.0195702919
 31
0.0
  0
LINE
  5
D7
330
1F
100
AcDbEntity
  8
0
  6
Continuous
 62
     1
370
    25
100
AcDbLine
 10
4.6744931871
 20
109.0195702919
 30
0.0
 11
4.6744931871
 21
61.5195702919
 31
0.0
  0
LINE
  5
D8
330
1F
100
AcDbEntity
  8
0
  6
Continuous
 62
     1
370
    25
100
AcDbLine
 10
4.6744931871
 20
156.5195702919
 30
0.0
 11
4.6744931871
 21
109.0195702919
 31
0.0
  0
ARC
  5
D9
330
1F
100
AcDbEntity
  8
0
  6
Continuous
 62
     7
370
    25
100
AcDbCircle
 10
246.1047709454
 20
155.5195702919
 30
0.0
 40
1.0
100
AcDbArc
 50
90.0
 51
180.0
  0
ARC
  5
DA
330
1F
100
AcDbEntity
  8
0
  6
Continuous
 62
     7
370
    25
100
AcDbCircle
 10
246.1047709454
 20
62.5195702919
 30
0.0
 40
1.0
100
AcDbArc
 50
180.0
 51
270.0
  0
LINE
  5
DB
330
1F
100
AcDbEntity
  8
0
  6
Continuous
 62
     7
370
    25
100
AcDbLine
 10
246.1047709454
 20
61.5195702919
 30
0.0
 11
256.1047709454
 21
61.5195702919
 31
0.0
  0
LINE
  5
DC
330
1F
100
AcDbEntity
  8
0
  6
Continuous
 62
     7
370
    25
100
AcDbLine
 10
256.1047709454
 20
156.5195702919
 30
0.0
 11
246.1047709454
 21
156.5195702919
 31
0.0
  0
ARC
  5
DD
330
1F
100
AcDbEntity
  8
0
  6
Continuous
 62
     7
370
    25
100
AcDbCircle
 10
256.1047709454
 20
155.5195702919
 30
0.0
 40
1.0
100
AcDbArc
 50
0.0
 51
90.0
  0
ARC
  5
DE
330
1F
100
AcDbEntity
  8
0
  6
Continuous
 62
     7
370
    25
100
AcDbCircle
 10
256.1047709454
 20
62.5195702919
 30
0.0
 40
1.0
100
AcDbArc
 50
270.0
 51
0.0
  0
LINE
  5
DF
330
1F
100
AcDbEntity
  8
0
  6
Continuous
 62
     7
370
    25
100
AcDbLine
 10
245.1047709454
 20
62.5195702919
 30
0.0
 11
245.1047709454
 21
155.5195702919
 31
0.0
  0
LINE
  5
E0
330
1F
100
AcDbEntity
  8
0
  6
Continuous
 62
     7
370
    25
100
AcDbLine
 10
257.1047709454
 20
155.5195702919
 30
0.0
 11
257.1047709454
 21
62.5195702919
 31
0.0
  0
LINE
  5
E1
330
1F
100
AcDbEntity
  8
0
  6
Continuous
 62
     1
370
    25
100
AcDbLine
 10
246.1047709454
 20
156.5195702919
 30
0.0
 11
246.1047709454
 21
61.5195702919
 31
0.0
  0
LINE
  5
E2
330
1F
100
AcDbEntity
  8
0
  6
Continuous
 62
     1
370
    25
100
AcDbLine
 10
256.1047709454
 20
61.5195702919
 30
0.0
 11
256.1047709454
 21
156.5195702919
 31
0.0
  0
ARC
  5
E3
330
1F
100
AcDbEntity
  8
0
  6
Continuous
 62
     7
370
    25
100
AcDbCircle
 10
93.6399820977
 20
193.7186169006
 30
0.0
 40
1.000000000000014
100
AcDbArc
 50
180.0
 51
270.0
  0
ARC
  5
E4
330
1F
100
AcDbEntity
  8
0
  6
Continuous
 62
     7
370
    25
100
AcDbCircle
 10
186.6399820977
 20
193.7186169006
 30
0.0
 40
1.0
100
AcDbArc
 50
270.0
 51
0.0
  0
LINE
  5
E5
330
1F
100
AcDbEntity
  8
0
  6
Continuous
 62
     7
370
    25
100
AcDbLine
 10
187.6399820977
 20
193.7186169006
 30
0.0
 11
187.6399820977
 21
203.7186169006
 31
0.0
  0
LINE
  5
E6
330
1F
100
AcDbEntity
  8
0
  6
Continuous
 62
     7
370
    25
100
AcDbLine
 10
92.6399820977
 20
203.7186169006
 30
0.0
 11
92.6399820977
 21
193.7186169006
 31
0.0
  0
ARC
  5
E7
330
1F
100
AcDbEntity
  8
0
  6
Continuous
 62
     7
370
    25
100
AcDbCircle
 10
93.6399820977
 20
203.7186169006
 30
0.0
 40
1.000000000000014
100
AcDbArc
 50
90.0
 51
180.0
  0
ARC
  5
E8
330
1F
100
AcDbEntity
  8
0
  6
Continuous
 62
     7
370
    25
100
AcDbCircle
 10
186.6399820977
 20
203.7186169006
 30
0.0
 40
1.0
100
AcDbArc
 50
0.0
 51
90.0
  0
LINE
  5
E9
330
1F
100
AcDbEntity
  8
0
  6
Continuous
 62
     7
370
    25
100
AcDbLine
 10
186.6399820977
 20
192.7186169006
 30
0.0
 11
93.6399820983
 21
192.7186169006
 31
0.0
  0
LINE
  5
EA
330
1F
100
AcDbEntity
  8
0
  6
Continuous
 62
     7
370
    25
100
AcDbLine
 10
93.6399820983
 20
204.7186169006
 30
0.0
 11
186.6399820977
 21
204.7186169006
 31
0.0
  0
LINE
  5
EB
330
1F
100
AcDbEntity
  8
0
  6
Continuous
 62
     1
370
    25
100
AcDbLine
 10
92.6399820977
 20
193.7186169006
 30
0.0
 11
187.6399820977
 21
193.7186169006
 31
0.0
  0
LINE
  5
EC
330
1F
100
AcDbEntity
  8
0
  6
Continuous
 62
     1
370
    25
100
AcDbLine
 10
187.6399820977
 20
203.7186169006
 30
0.0
 11
92.6399820977
 21
203.7186169006
 31
0.0
  0
ARC
  5
ED
330
1F
100
AcDbEntity
  8
0
  6
Continuous
 62
     7
370
    25
100
AcDbCircle
 10
186.6399820977
 20
-3.7036853871
 30
0.0
 40
1.0
100
AcDbArc
 50
0.0
 51
90.0
  0
ARC
  5
EE
330
1F
100
AcDbEntity
  8
0
  6
Continuous
 62
     7
370
    25
100
AcDbCircle
 10
93.6399820977
 20
-3.7036853871
 30
0.0
 40
1.000000000000014
100
AcDbArc
 50
90.0
 51
180.0
  0
LINE
  5
EF
330
1F
100
AcDbEntity
  8
0
  6
Continuous
 62
     7
370
    25
100
AcDbLine
 10
92.6399820977
 20
-3.7036853871
 30
0.0
 11
92.6399820977
 21
-13.7036853871
 31
0.0
  0
LINE
  5
F0
330
1F
100
AcDbEntity
  8
0
  6
Continuous
 62
     7
370
    25
100
AcDbLine
 10
187.6399820977
 20
-13.7036853871
 30
0.0
 11
187.6399820977
 21
-3.7036853871
 31
0.0
  0
ARC
  5
F1
330
1F
100
AcDbEntity
  8
0
  6
Continuous
 62
     7
370
    25
100
AcDbCircle
 10
186.6399820977
 20
-13.7036853871
 30
0.0
 40
1.000000000000002
100
AcDbArc
 50
270.0
 51
0.0
  0
ARC
  5
F2
330
1F
100
AcDbEntity
  8
0
  6
Continuous
 62
     7
370
    25
100
AcDbCircle
 10
93.6399820977
 20
-13.7036853871
 30
0.0
 40
1.000000000000014
100
AcDbArc
 50
180.0
 51
270.0
  0
LINE
  5
F3
330
1F
100
AcDbEntity
  8
0
  6
Continuous
 62
     7
370
    25
100
AcDbLine
 10
93.6399820983
 20
-2.7036853871
 30
0.0
 11
186.6399820977
 21
-2.7036853871
 31
0.0
  0
LINE
  5
F4
330
1F
100
AcDbEntity
  8
0
  6
Continuous
 62
     7
370
    25
100
AcDbLine
 10
186.6399820977
 20
-14.7036853871
 30
0.0
 11
93.6399820983
 21
-14.7036853871
 31
0.0
  0
LINE
  5
F5
330
1F
100
AcDbEntity
  8
0
  6
Continuous
 62
     1
370
    25
100
AcDbLine
 10
187.6399820977
 20
-3.7036853871
 30
0.0
 11
92.6399820977
 21
-3.7036853871
 31
0.0
  0
LINE
  5
F6
330
1F
100
AcDbEntity
  8
0
  6
Continuous
 62
     1
370
    25
100
AcDbLine
 10
92.6399820977
 20
-13.7036853871
 30
0.0
 11
187.6399820977
 21
-13.7036853871
 31
0.0
  0
SPLINE
  5
F7
330
1F
100
AcDbEntity
  8
0
  6
Continuous
 62
     7
370
    25
100
AcDbSpline
210
0.0
220
0.0
230
1.0
 70
     8
 71
     3
 72
    80
 73
    76
 74
     0
 42
0.00000001
 43
0.00000001
 40
0.0
 40
0.0
 40
0.0
 40
0.0
 40
0.0024157745985196
 40
0.016075099950668
 40
0.0297468614440987
 40
0.0434386148347944
 40
0.0571562994940332
 40
0.0709039138962739
 40
0.0846834268608118
 40
0.0984949072467323
 40
0.1123368223956364
 40
0.1262064370600567
 40
0.1401002422414417
 40
0.1540143549637275
 40
0.167944849783064
 40
0.181888004157811
 40
0.1958404575371843
 40
0.2097992956629504
 40
0.2237620770463383
 40
0.2377268192955843
 40
0.2516917133647247
 40
0.2656554910958689
 40
0.2796173697165225
 40
0.2935768110097635
 40
0.3075334745363836
 40
0.3214871771879899
 40
0.3354378591937734
 40
0.3493855561755397
 40
0.363330376584777
 40
0.3772724837637362
 40
0.3912120818800647
 40
0.4051494050450153
 40
0.4190847090089253
 40
0.4330182649166975
 40
0.4469503546906223
 40
0.4608812676829867
 40
0.4748112983047755
 40
0.4887407443887993
 40
0.5026699060867628
 40
0.5165990851304392
 40
0.5305285124848946
 40
0.5444584626103285
 40
0.5583892392957113
 40
0.5723211460226261
 40
0.5862544850771811
 40
0.6001895562259254
 40
0.6141266547663519
 40
0.6280660687302085
 40
0.6420080749704575
 40
0.655952933803307
 40
0.6699008818051202
 40
0.6838521222805085
 40
0.697806812825618
 40
0.7117650493155787
 40
0.7257268455599445
 40
0.7396921078163466
 40
0.7536606033665006
 40
0.7676319224957172
 40
0.7816054335587566
 40
0.7955802314738203
 40
0.8095546670259653
 40
0.8235268998345171
 40
0.837494708105295
 40
0.8514553766566667
 40
0.8654056925899735
 40
0.8793419891963846
 40
0.8932602573581759
 40
0.907156341662185
 40
0.9210262304730198
 40
0.934866434016645
 40
0.9486744228932427
 40
0.9624490753579699
 40
0.9761910622319003
 40
0.9899030915276905
 40
1.0
 40
1.0
 40
1.0
 40
1.0
 10
268.33909726045
 20
42.26280905064103
 30
0.0
 10
268.2765984534481
 20
42.29245458673385
 30
0.0
 10
267.8607175306303
 20
42.48972255870243
 30
0.0
 10
267.0542295885374
 20
42.78338920140403
 30
0.0
 10
265.9199179353271
 20
43.13862812341079
 30
0.0
 10
264.7476491437325
 20
43.41220184111853
 30
0.0
 10
263.54368003978
 20
43.61207526330403
 30
0.0
 10
262.3087229305791
 20
43.73548680398767
 30
0.0
 10
261.0451337201928
 20
43.78266446263866
 30
0.0
 10
259.7549937525146
 20
43.75317962731838
 30
0.0
 10
258.4406206186862
 20
43.64696378535345
 30
0.0
 10
257.1044112845939
 20
43.4640642239146
 30
0.0
 10
255.7488549689726
 20
43.20472779395081
 30
0.0
 10
254.3764963495947
 20
42.86938492117265
 30
0.0
 10
252.9899131252088
 20
42.45865044273481
 30
0.0
 10
251.5916942310087
 20
41.97331272748993
 30
0.0
 10
250.1844241367693
 20
41.41432184650706
 30
0.0
 10
248.7706719979795
 20
40.78277661209041
 30
0.0
 10
247.3529851909671
 20
40.07991250520391
 30
0.0
 10
245.9338944241031
 20
39.30709567942202
 30
0.0
 10
244.5159067575842
 20
38.46581303055951
 30
0.0
 10
243.1014995930103
 20
37.55766207457331
 30
0.0
 10
241.6931132431222
 20
36.58433858069226
 30
0.0
 10
240.2931577182025
 20
35.54763448043636
 30
0.0
 10
238.9040189734735
 20
34.44943847592768
 30
0.0
 10
237.5280581965072
 20
33.29173328211529
 30
0.0
 10
236.1676105155038
 20
32.07659306624819
 30
0.0
 10
234.8249831741261
 20
30.80618091581609
 30
0.0
 10
233.5024532449637
 20
29.48274621558287
 30
0.0
 10
232.2022649642394
 20
28.10862185460859
 30
0.0
 10
230.9266267705692
 20
26.68622121502903
 30
0.0
 10
229.6777081251827
 20
25.21803491719598
 30
0.0
 10
228.4576361829251
 20
23.70662731208284
 30
0.0
 10
227.2684923744692
 20
22.15463272314122
 30
0.0
 10
226.1123089515235
 20
20.56475144737556
 30
0.0
 10
224.9910655389959
 20
18.93974553032617
 30
0.0
 10
223.9066857312988
 20
17.2824343328197
 30
0.0
 10
222.8610337642032
 20
15.59568990916443
 30
0.0
 10
221.8559112891909
 20
13.88243221820328
 30
0.0
 10
220.8930559274234
 20
12.14562717289868
 30
0.0
 10
219.9741369575503
 20
10.38827997670603
 30
0.0
 10
219.1007516989065
 20
8.613428717157696
 30
0.0
 10
218.2744215551426
 20
6.824135926899165
 30
0.0
 10
217.4965907472386
 20
5.023484991005623
 30
0.0
 10
216.768624733387
 20
3.214576051378816
 30
0.0
 10
216.0918082021324
 20
1.400520695318589
 30
0.0
 10
215.4673432848119
 20
-0.4155633176369876
 30
0.0
 10
214.8963479920938
 20
-2.230557252827673
 30
0.0
 10
214.3798548751176
 20
-4.041346479207522
 30
0.0
 10
213.9188099060147
 20
-5.844825381765021
 30
0.0
 10
213.51407156466
 20
-7.637902053466645
 30
0.0
 10
213.1664101076461
 20
-9.417502706049971
 30
0.0
 10
212.8765069807743
 20
-11.18057573282413
 30
0.0
 10
212.6449543168108
 20
-12.92409535196047
 30
0.0
 10
212.4722544348798
 20
-14.64506475735401
 30
0.0
 10
212.358819225842
 20
-16.34051870887721
 30
0.0
 10
212.304969269152
 20
-18.00752550850616
 30
0.0
 10
212.3109324822154
 20
-19.6431883400085
 30
0.0
 10
212.3768420562171
 20
-21.24464600093696
 30
0.0
 10
212.5027321480359
 20
-22.80905769759807
 30
0.0
 10
212.6885311211062
 20
-24.33361236235507
 30
0.0
 10
212.9340542421982
 20
-25.8155325652906
 30
0.0
 10
213.2389985596281
 20
-27.25209001520109
 30
0.0
 10
213.6029331483477
 20
-28.6406008960077
 30
0.0
 10
214.0252879746776
 20
-29.97842971014196
 30
0.0
 10
214.5053424509815
 20
-31.26300065240824
 30
0.0
 10
215.042216796946
 20
-32.4918115770173
 30
0.0
 10
215.6348611829437
 20
-33.66246188252153
 30
0.0
 10
216.2820717064768
 20
-34.77265227025273
 30
0.0
 10
216.9824365968827
 20
-35.82030790767863
 30
0.0
 10
217.7345822884625
 20
-36.80324997461085
 30
0.0
 10
218.5363500435882
 20
-37.72053714221338
 30
0.0
 10
219.3879932039278
 20
-38.56756608503646
 30
0.0
 10
220.2025757053596
 20
-39.28568036926361
 30
0.0
 10
220.7532348312966
 20
-39.68949495425639
 30
0.0
 10
220.986758680541
 20
-39.86074488334472
 30
0.0
  0
LINE
  5
F8
330
1F
100
AcDbEntity
  8
0
  6
Continuous
 62
     7
370
    25
100
AcDbLine
 10
277.0097502085
 20
37.376258986
 30
0.0
 11
269.9386823967
 21
41.4582995451
 31
0.0
  0
LINE
  5
F9
330
1F
100
AcDbEntity
  8
0
  6
Continuous
 62
     7
370
    25
100
AcDbLine
 10
222.4425425965
 20
-40.816342381
 30
0.0
 11
229.5136104083
 21
-44.8983829402
 31
0.0
  0
SPLINE
  5
FA
330
1F
100
AcDbEntity
  8
0
  6
Continuous
 62
     7
370
    25
100
AcDbSpline
210
0.0
220
0.0
230
1.0
 70
     8
 71
     3
 72
    63
 73
    59
 74
     0
 42
0.00000001
 43
0.00000001
 40
0.0
 40
0.0
 40
0.0
 40
0.0
 40
0.0045475605216332
 40
0.0225378318490569
 40
0.0405452631212643
 40
0.0585796713851604
 40
0.0766487036776662
 40
0.0947574318706211
 40
0.1129082580604138
 40
0.1311011041604448
 40
0.1493338177677125
 40
0.1676027034609229
 40
0.1859030871460408
 40
0.2042298374181218
 40
0.2225777943855378
 40
0.2409420843329102
 40
0.2593183214386632
 40
0.2777027124683676
 40
0.2960920870335082
 40
0.314483876585322
 40
0.332875700688753
 40
0.3512659672894644
 40
0.3696536711305851
 40
0.3880381242973187
 40
0.4064188951876842
 40
0.4247957558671691
 40
0.4431686379024199
 40
0.4615375961049396
 40
0.4799027792924817
 40
0.4982644070669413
 40
0.5166227516244384
 40
0.5349781236962377
 40
0.5533308618304561
 40
0.571681324341783
 40
0.5900298833669724
 40
0.6083769205619262
 40
0.6267228240589712
 40
0.6450679863705944
 40
0.6634128029788452
 40
0.6817576713892881
 40
0.7001028862073745
 40
0.7184488186068574
 40
0.736795868682144
 40
0.7551444360516093
 40
0.773494918654624
 40
0.7918477109565651
 40
0.810203201310666
 40
0.8285617681806736
 40
0.84692377486456
 40
0.8652895622803747
 40
0.8836594392795354
 40
0.9020336698421555
 40
0.9204124563865853
 40
0.93879591830065
 40
0.9571840646916379
 40
0.9755767602862543
 40
0.99397368343892
 40
1.0
 40
1.0
 40
1.0
 40
1.0
 10
231.1105428456518
 20
-45.69976406980993
 30
0.0
 10
231.2000414467786
 20
-45.74182610506593
 30
0.0
 10
231.6435989131
 20
-45.95028667932741
 30
0.0
 10
232.4792772641569
 20
-46.25193756404931
 30
0.0
 10
233.616495873426
 20
-46.60110690707084
 30
0.0
 10
234.7911081392569
 20
-46.86937935856245
 30
0.0
 10
235.9974026481915
 20
-47.06369713712867
 30
0.0
 10
237.2345102595351
 20
-47.18157988539268
 30
0.0
 10
238.5001052673883
 20
-47.22318940502297
 30
0.0
 10
239.7920860376208
 20
-47.18812705280243
 30
0.0
 10
241.1081292345147
 20
-47.07633085993835
 30
0.0
 10
242.4458301071473
 20
-46.88786266209727
 30
0.0
 10
243.8026945556394
 20
-46.6229825625065
 30
0.0
 10
245.1761746774762
 20
-46.28213464385807
 30
0.0
 10
246.5636913098571
 20
-45.86594672167097
 30
0.0
 10
247.9626553694161
 20
-45.37521935472113
 30
0.0
 10
249.3704831940377
 20
-44.81091386051591
 30
0.0
 10
250.7846070389363
 20
-44.17413938186447
 30
0.0
 10
252.2024812705941
 20
-43.46614090421431
 30
0.0
 10
253.6215761480515
 20
-42.68829392178746
 30
0.0
 10
255.0393867854705
 20
-41.84209361521444
 30
0.0
 10
256.4534379079674
 20
-40.92914528998416
 30
0.0
 10
257.8612921641236
 20
-39.9511514012382
 30
0.0
 10
259.2605412815399
 20
-38.90991101790799
 30
0.0
 10
260.6488010748542
 20
-37.80731976781107
 30
0.0
 10
262.0237122011068
 20
-36.64536710108972
 30
0.0
 10
263.3829414921977
 20
-35.42613373681437
 30
0.0
 10
264.7241838162462
 20
-34.1517891277913
 30
0.0
 10
266.0451643944997
 20
-32.82458882747823
 30
0.0
 10
267.343641490899
 20
-31.4468716824434
 30
0.0
 10
268.6174093917314
 20
-30.02105680405421
 30
0.0
 10
269.864301598493
 20
-28.5496402953851
 30
0.0
 10
271.0821941652715
 20
-27.03519172521969
 30
0.0
 10
272.2690091208724
 20
-25.48035035199756
 30
0.0
 10
273.4227179244983
 20
-23.88782110790597
 30
0.0
 10
274.5413449115549
 20
-22.26037035808939
 30
0.0
 10
275.622970692846
 20
-20.60082145301152
 30
0.0
 10
276.6657354761335
 20
-18.91205009374508
 30
0.0
 10
277.6678422833908
 20
-17.1969795317282
 30
0.0
 10
278.6275582239967
 20
-15.45857891625727
 30
0.0
 10
279.5432191573282
 20
-13.69985602175053
 30
0.0
 10
280.4132331026554
 20
-11.92385111988879
 30
0.0
 10
281.2360843060595
 20
-10.13362821964727
 30
0.0
 10
282.0103342015255
 20
-8.332272103973187
 30
0.0
 10
282.734623139455
 20
-6.522883925637783
 30
0.0
 10
283.4076723755579
 20
-4.708575898679245
 30
0.0
 10
284.0282858507532
 20
-2.892466024515519
 30
0.0
 10
284.5953517064299
 20
-1.077672920405319
 30
0.0
 10
285.1078437259114
 20
0.7326893177977682
 30
0.0
 10
285.564821994834
 20
2.535515756669374
 30
0.0
 10
285.9654354560519
 20
4.32771625927236
 30
0.0
 10
286.3089164468402
 20
6.106216287368301
 30
0.0
 10
286.594604357297
 20
7.86797432258326
 30
0.0
 10
286.8218599640796
 20
9.609935498984061
 30
0.0
 10
286.9903876295332
 20
11.32922130389219
 30
0.0
 10
287.0990348999415
 20
13.02243550630292
 30
0.0
 10
287.1387881896507
 20
14.31476843054008
 30
0.0
 10
287.1414811569326
 20
15.04118647515397
 30
0.0
 10
287.1421456336162
 20
15.22042662280973
 30
0.0
  0
SPLINE
  5
FB
330
1F
100
AcDbEntity
  8
0
  6
Continuous
 62
     7
370
    25
100
AcDbSpline
210
0.0
220
0.0
230
1.0
 70
     8
 71
     3
 72
    25
 73
    21
 74
     0
 42
0.00000001
 43
0.00000001
 40
0.0
 40
0.0
 40
0.0
 40
0.0
 40
0.0307514111904908
 40
0.089084230563885
 40
0.1474283453073876
 40
0.2057715434212307
 40
0.264106142759519
 40
0.3224230126042315
 40
0.3807109695018471
 40
0.438956747518525
 40
0.4971451642153041
 40
0.5552595626026453
 40
0.6132826023168657
 40
0.671197442034753
 40
0.7289892939175548
 40
0.786647242131267
 40
0.8441661168316354
 40
0.9015481311281927
 40
0.9588039553799835
 40
1.0
 40
1.0
 40
1.0
 40
1.0
 10
287.1421456336162
 20
15.22042662280973
 30
0.0
 10
287.1404717800025
 20
15.50745287568624
 30
0.0
 10
287.1356227680228
 20
16.33894359104713
 30
0.0
 10
287.0817562599991
 20
17.68910170214159
 30
0.0
 10
286.9608723072173
 20
19.25659280409052
 30
0.0
 10
286.7792532220795
 20
20.78404824545247
 30
0.0
 10
286.5381105516594
 20
22.26918586222959
 30
0.0
 10
286.2374620904375
 20
23.70912656115136
 30
0.0
 10
285.87780310276
 20
25.10122263789048
 30
0.0
 10
285.4596732959958
 20
26.44282422818599
 30
0.0
 10
284.9837872842825
 20
27.73135357304058
 30
0.0
 10
284.4510114838567
 20
28.96430162683441
 30
0.0
 10
283.8623839913957
 20
30.13926032156833
 30
0.0
 10
283.2190962229571
 20
31.25392004797988
 30
0.0
 10
282.5225502701936
 20
32.30619604776928
 30
0.0
 10
281.7741048779291
 20
33.29388903414109
 30
0.0
 10
280.9759311976794
 20
34.21606841292792
 30
0.0
 10
280.1276981457829
 20
35.06802058105151
 30
0.0
 10
279.3212893526354
 20
35.78652652953022
 30
0.0
 10
278.7778346880999
 20
36.18949453073379
 30
0.0
 10
278.5504323760288
 20
36.35811182513615
 30
0.0
  0
SPLINE
  5
FC
330
1F
100
AcDbEntity
  8
0
  6
Continuous
 62
     7
370
    25
100
AcDbSpline
210
0.0
220
0.0
230
1.0
 70
     8
 71
     3
 72
    15
 73
    11
 74
     0
 42
0.00000001
 43
0.00000001
 40
0.0
 40
0.0
 40
0.0
 40
0.0
 40
0.1311539748733603
 40
0.263113552870282
 40
0.3888941072969858
 40
0.5224670072736891
 40
0.6514897970462076
 40
0.7780021922198995
 40
0.9034252462916759
 40
0.9999999999999999
 40
0.9999999999999999
 40
0.9999999999999999
 40
0.9999999999999999
 10
271.5793066594263
 20
19.59387889699331
 30
0.0
 10
271.6808140873999
 20
19.5298569818022
 30
0.0
 10
271.8844524448547
 20
19.4014199017689
 30
0.0
 10
272.1469766034346
 20
19.13071781806666
 30
0.0
 10
272.386564510713
 20
18.7971972989643
 30
0.0
 10
272.5908582474594
 20
18.39489924978179
 30
0.0
 10
272.7555167068309
 20
17.9225130399568
 30
0.0
 10
272.8707977654484
 20
17.39700736994146
 30
0.0
 10
272.9343914274648
 20
16.86830686868111
 30
0.0
 10
272.9414729944488
 20
16.50223740466329
 30
0.0
 10
272.9445536581463
 20
16.34298777656482
 30
0.0
  0
SPLINE
  5
FD
330
1F
100
AcDbEntity
  8
0
  6
Continuous
 62
     7
370
    25
100
AcDbSpline
210
0.0
220
0.0
230
1.0
 70
     8
 71
     3
 72
    32
 73
    28
 74
     0
 42
0.00000001
 43
0.00000001
 40
0.0
 40
0.0
 40
0.0
 40
0.0
 40
0.0213832483523877
 40
0.0623860927264029
 40
0.1035041745034447
 40
0.1447443201401254
 40
0.1861043769756703
 40
0.2275691313633841
 40
0.2691166618322379
 40
0.3107218264120375
 40
0.3523580525045996
 40
0.3939981575490271
 40
0.4356063530606544
 40
0.4771542667042106
 40
0.518614571333228
 40
0.5599610318247001
 40
0.6011703513006678
 40
0.6422257406967894
 40
0.6831233332877183
 40
0.7238831343424423
 40
0.7645669345773942
 40
0.8052673909531134
 40
0.8461741137433175
 40
0.8876347993720847
 40
0.9301971544356996
 40
0.974603788614892
 40
1.0
 40
1.0
 40
1.0
 40
1.0
 10
272.9445536581463
 20
16.34298777656482
 30
0.0
 10
272.943110040533
 20
16.2326530965006
 30
0.0
 10
272.9388982547088
 20
15.9107492646791
 30
0.0
 10
272.8913317357449
 20
15.34822404955972
 30
0.0
 10
272.7831865243859
 20
14.65143512303489
 30
0.0
 10
272.6201132503332
 20
13.9314728664931
 30
0.0
 10
272.4038761228749
 20
13.1970391355771
 30
0.0
 10
272.1358747277692
 20
12.45608303180016
 30
0.0
 10
271.8185808113452
 20
11.71690824896011
 30
0.0
 10
271.4550967855005
 20
10.98771792973869
 30
0.0
 10
271.0492091359036
 20
10.27658627701085
 30
0.0
 10
270.6053383196904
 20
9.5913800981948
 30
0.0
 10
270.1284812304038
 20
8.939619824683628
 30
0.0
 10
269.6241548531014
 20
8.328373054572488
 30
0.0
 10
269.098307204737
 20
7.764120904077188
 30
0.0
 10
268.5572900210204
 20
7.252696041404013
 30
0.0
 10
268.007798398255
 20
6.799170605139894
 30
0.0
 10
267.4567851949392
 20
6.407724273031858
 30
0.0
 10
266.9113381462732
 20
6.081501439232593
 30
0.0
 10
266.3784869128887
 20
5.8224559532553
 30
0.0
 10
265.8650927490471
 20
5.631319865199682
 30
0.0
 10
265.3773625928133
 20
5.507369830626278
 30
0.0
 10
264.9203634563177
 20
5.448879421863898
 30
0.0
 10
264.4961580875294
 20
5.452212438963246
 30
0.0
 10
264.1061838091813
 20
5.51900455839114
 30
0.0
 10
263.7975354316745
 20
5.617520877842011
 30
0.0
 10
263.6317162439838
 20
5.720085801138615
 30
0.0
 10
263.5713866240627
 20
5.757401765146681
 30
0.0
  0
SPLINE
  5
FE
330
1F
100
AcDbEntity
  8
0
  6
Continuous
 62
     7
370
    25
100
AcDbSpline
210
0.0
220
0.0
230
1.0
 70
     8
 71
     3
 72
    15
 73
    11
 74
     0
 42
0.00000001
 43
0.00000001
 40
0.0
 40
0.0
 40
0.0
 40
0.0
 40
0.1311539748732656
 40
0.2631135528701956
 40
0.3888941072968871
 40
0.5224670072735882
 40
0.6514897970461168
 40
0.7780021922198103
 40
0.9034252462915772
 40
1.0
 40
1.0
 40
1.0
 40
1.0
 10
250.1893265285332
 20
-17.45465335386686
 30
0.0
 10
250.2908339565068
 20
-17.51867526905791
 30
0.0
 10
250.4944723139615
 20
-17.64711234909115
 30
0.0
 10
250.7569964725414
 20
-17.91781443279329
 30
0.0
 10
250.9965843798198
 20
-18.25133495189556
 30
0.0
 10
251.2008781165663
 20
-18.65363300107806
 30
0.0
 10
251.3655365759377
 20
-19.12601921090298
 30
0.0
 10
251.4808176345553
 20
-19.6515248809183
 30
0.0
 10
251.5444112965717
 20
-20.18022538217875
 30
0.0
 10
251.5514928635558
 20
-20.54629484619671
 30
0.0
 10
251.5545735272533
 20
-20.70554447429536
 30
0.0
  0
SPLINE
  5
FF
330
1F
100
AcDbEntity
  8
0
  6
Continuous
 62
     7
370
    25
100
AcDbSpline
210
0.0
220
0.0
230
1.0
 70
     8
 71
     3
 72
    32
 73
    28
 74
     0
 42
0.00000001
 43
0.00000001
 40
0.0
 40
0.0
 40
0.0
 40
0.0
 40
0.0213832483523877
 40
0.0623860927263965
 40
0.1035041745034379
 40
0.144744320140114
 40
0.1861043769756608
 40
0.227569131363372
 40
0.2691166618322253
 40
0.310721826412026
 40
0.3523580525045857
 40
0.3939981575490138
 40
0.435606353060643
 40
0.4771542667041989
 40
0.5186145713332192
 40
0.5599610318246874
 40
0.6011703513006533
 40
0.6422257406967748
 40
0.6831233332877069
 40
0.723883134342431
 40
0.7645669345773823
 40
0.8052673909531011
 40
0.8461741137433071
 40
0.8876347993720729
 40
0.930197154435686
 40
0.974603788614878
 40
1.0
 40
1.0
 40
1.0
 40
1.0
 10
251.5545735272533
 20
-20.70554447429536
 30
0.0
 10
251.5531299096399
 20
-20.81587915435958
 30
0.0
 10
251.5489181238157
 20
-21.13778298618104
 30
0.0
 10
251.5013516048519
 20
-21.70030820130038
 30
0.0
 10
251.3932063934929
 20
-22.39709712782516
 30
0.0
 10
251.2301331194403
 20
-23.1170593843669
 30
0.0
 10
251.0138959919819
 20
-23.85149311528288
 30
0.0
 10
250.7458945968762
 20
-24.59244921905982
 30
0.0
 10
250.4286006804523
 20
-25.33162400189985
 30
0.0
 10
250.0651166546076
 20
-26.06081432112128
 30
0.0
 10
249.6592290050107
 20
-26.7719459738491
 30
0.0
 10
249.2153581887975
 20
-27.45715215266517
 30
0.0
 10
248.7385010995109
 20
-28.10891242617635
 30
0.0
 10
248.2341747222085
 20
-28.72015919628754
 30
0.0
 10
247.7083270738441
 20
-29.28441134678284
 30
0.0
 10
247.1673098901275
 20
-29.79583620945602
 30
0.0
 10
246.6178182673622
 20
-30.24936164572014
 30
0.0
 10
246.0668050640464
 20
-30.64080797782819
 30
0.0
 10
245.5213580153804
 20
-30.9670308116275
 30
0.0
 10
244.9885067819959
 20
-31.22607629760481
 30
0.0
 10
244.4751126181543
 20
-31.41721238566045
 30
0.0
 10
243.9873824619204
 20
-31.54116242023388
 30
0.0
 10
243.5303833254248
 20
-31.59965282899626
 30
0.0
 10
243.1061779566365
 20
-31.59631981189694
 30
0.0
 10
242.7162036782884
 20
-31.52952769246907
 30
0.0
 10
242.4075553007816
 20
-31.4310113730182
 30
0.0
 10
242.2417361130908
 20
-31.32844644972159
 30
0.0
 10
242.1814064931697
 20
-31.29113048571351
 30
0.0
  0
SPLINE
  5
100
330
1F
100
AcDbEntity
  8
0
  6
Continuous
 62
     7
370
    25
100
AcDbSpline
210
0.0
220
0.0
230
1.0
 70
     8
 71
     3
 72
    13
 73
     9
 74
     0
 42
0.00000001
 43
0.00000001
 40
0.0
 40
0.0
 40
0.0
 40
0.0
 40
0.0077243925318809
 40
0.2347863289550682
 40
0.4621047720017581
 40
0.6895329019187394
 40
0.9169056525883923
 40
1.0
 40
1.0
 40
1.0
 40
1.0
 10
270.2172415886788
 20
9.07398400336541
 30
0.0
 10
270.2205038721617
 20
9.082391543321918
 30
0.0
 10
270.3196624221453
 20
9.337942440532837
 30
0.0
 10
270.5593786003107
 20
9.836420341648827
 30
0.0
 10
270.935655278153
 20
10.56013857820007
 30
0.0
 10
271.360240820448
 20
11.25957195062745
 30
0.0
 10
271.7166788800291
 20
11.79598980420928
 30
0.0
 10
271.9406168358076
 20
12.08342589063627
 30
0.0
 10
272.0005522634621
 20
12.16035614885624
 30
0.0
  0
SPLINE
  5
101
330
1F
100
AcDbEntity
  8
0
  6
Continuous
 62
     7
370
    25
100
AcDbSpline
210
0.0
220
0.0
230
1.0
 70
     8
 71
     3
 72
    13
 73
     9
 74
     0
 42
0.00000001
 43
0.00000001
 40
0.0
 40
0.0
 40
0.0
 40
0.0
 40
0.007724392531749
 40
0.2347863289549452
 40
0.4621047720016242
 40
0.6895329019185985
 40
0.9169056525882433
 40
1.0
 40
1.0
 40
1.0
 40
1.0
 10
248.8272614577857
 20
-27.97454824749484
 30
0.0
 10
248.8305237412686
 20
-27.96614070753847
 30
0.0
 10
248.9296822912521
 20
-27.71058981032765
 30
0.0
 10
249.1693984694174
 20
-27.21211190921183
 30
0.0
 10
249.5456751472597
 20
-26.48839367266056
 30
0.0
 10
249.9702606895547
 20
-25.78896030023317
 30
0.0
 10
250.3266987491359
 20
-25.2525424466512
 30
0.0
 10
250.5506367049146
 20
-24.96510636022406
 30
0.0
 10
250.610572132569
 20
-24.88817610200395
 30
0.0
  0
SPLINE
  5
102
330
1F
100
AcDbEntity
  8
0
  6
Continuous
 62
     7
370
    25
100
AcDbSpline
210
0.0
220
0.0
230
1.0
 70
     8
 71
     3
 72
    18
 73
    14
 74
     0
 42
0.00000001
 43
0.00000001
 40
0.0
 40
0.0
 40
0.0
 40
0.0
 40
0.0182425836332159
 40
0.1222144024951047
 40
0.2260702100940185
 40
0.3283576156329686
 40
0.4286180935976287
 40
0.5270580904479214
 40
0.6241438179478247
 40
0.720339330509914
 40
0.8160129156355262
 40
0.911426974182076
 40
1.0
 40
1.0
 40
1.0
 40
1.0
 10
253.1418895024035
 20
12.46627494314182
 30
0.0
 10
253.1721741613381
 20
12.45143996726287
 30
0.0
 10
253.3750632679955
 20
12.3520544991993
 30
0.0
 10
253.7105785973039
 20
12.09961724620294
 30
0.0
 10
254.1445978156272
 20
11.7045012077379
 30
0.0
 10
254.5291755679527
 20
11.23473959798887
 30
0.0
 10
254.8658751375476
 20
10.70360762123599
 30
0.0
 10
255.1522677095849
 20
10.11326832342486
 30
0.0
 10
255.3879583286037
 20
9.467432181581891
 30
0.0
 10
255.5724833953093
 20
8.769024049576085
 30
0.0
 10
255.7035531588658
 20
8.020214936087775
 30
0.0
 10
255.7830045932271
 20
7.246523152106978
 30
0.0
 10
255.7925965572276
 20
6.70482010579613
 30
0.0
 10
255.7972142143746
 20
6.44403942071559
 30
0.0
  0
SPLINE
  5
103
330
1F
100
AcDbEntity
  8
0
  6
Continuous
 62
     7
370
    25
100
AcDbSpline
210
0.0
220
0.0
230
1.0
 70
     8
 71
     3
 72
    39
 73
    35
 74
     0
 42
0.00000001
 43
0.00000001
 40
0.0
 40
0.0
 40
0.0
 40
0.0
 40
0.016579606659059
 40
0.0482761220329385
 40
0.0800116021441302
 40
0.1117862925338331
 40
0.1436029310159246
 40
0.1754601125960076
 40
0.2073538770137845
 40
0.2392787436619405
 40
0.2712283641032743
 40
0.3031959174508623
 40
0.3351743369020633
 40
0.3671564292848161
 40
0.3991336595124866
 40
0.4310975781918421
 40
0.4630408789245812
 40
0.4949563169757021
 40
0.5268368451145985
 40
0.5586758681211019
 40
0.5904676819493462
 40
0.6222081918736317
 40
0.6538960410947803
 40
0.6855343266137942
 40
0.7171331256642245
 40
0.7487130831443213
 40
0.7802984139625846
 40
0.8119372096156836
 40
0.843705289675321
 40
0.8757100819762914
 40
0.9080909394930756
 40
0.941003959066408
 40
0.9745733851218485
 40
1.0
 40
1.0
 40
1.0
 40
1.0
 10
255.7972142143746
 20
6.44403942071559
 30
0.0
 10
255.795693375332
 20
6.294441538455835
 30
0.0
 10
255.7912650307566
 20
5.858845823288781
 30
0.0
 10
255.7416540804104
 20
5.109836204945952
 30
0.0
 10
255.6295968286585
 20
4.191513854703357
 30
0.0
 10
255.461033351518
 20
3.248247911417506
 30
0.0
 10
255.2374628868964
 20
2.286555481742032
 30
0.0
 10
254.9595892478075
 20
1.312182848125739
 30
0.0
 10
254.628849966653
 20
0.3312177770160576
 30
0.0
 10
254.2469922308021
 20
-0.6502624611294725
 30
0.0
 10
253.8161649359915
 20
-1.626163829342537
 30
0.0
 10
253.3388695610283
 20
-2.590442667968778
 30
0.0
 10
252.8179478528394
 20
-3.537142038927953
 30
0.0
 10
252.2565667735222
 20
-4.460420299914941
 30
0.0
 10
251.658200691528
 20
-5.354591546213278
 30
0.0
 10
251.0266048425509
 20
-6.214176069587833
 30
0.0
 10
250.365784125812
 20
-7.033948731089371
 30
0.0
 10
249.6799698598517
 20
-7.808973138628304
 30
0.0
 10
248.9736039855007
 20
-8.534629583649076
 30
0.0
 10
248.251313615422
 20
-9.206655611190724
 30
0.0
 10
247.5178814656368
 20
-9.821189004926326
 30
0.0
 10
246.7782098065891
 20
-10.37481327599174
 30
0.0
 10
246.0372745118133
 20
-10.86460505206873
 30
0.0
 10
245.300064655777
 20
-11.28818103455299
 30
0.0
 10
244.5715013514778
 20
-11.64374035930075
 30
0.0
 10
243.8564198240006
 20
-11.93005468558369
 30
0.0
 10
243.159394911326
 20
-12.146524303386
 30
0.0
 10
242.484559332032
 20
-12.29313474782545
 30
0.0
 10
241.8352653896219
 20
-12.37042028373638
 30
0.0
 10
241.2140876314612
 20
-12.37886308658111
 30
0.0
 10
240.622040048241
 20
-12.31963614198681
 30
0.0
 10
240.0613425361137
 20
-12.18957157343971
 30
0.0
 10
239.5729290487064
 20
-12.01470761111661
 30
0.0
 10
239.2895605741388
 20
-11.85132820748265
 30
0.0
 10
239.1674320218254
 20
-11.78091356423737
 30
0.0
  0
SPLINE
  5
104
330
1F
100
AcDbEntity
  8
0
  6
Continuous
 62
     7
370
    25
100
AcDbSpline
210
0.0
220
0.0
230
1.0
 70
     8
 71
     3
 72
    34
 73
    30
 74
     0
 42
0.00000001
 43
0.00000001
 40
0.0
 40
0.0
 40
0.0
 40
0.0
 40
0.0327631880125278
 40
0.0709312727704993
 40
0.1090770253165593
 40
0.1472283619632951
 40
0.1854117269587804
 40
0.2236405696253069
 40
0.2619196719559997
 40
0.3002482734307036
 40
0.3386221732969834
 40
0.3770351065724823
 40
0.415479618193919
 40
0.4539475980549116
 40
0.4924305920503684
 40
0.5309199697622715
 40
0.5694061321826824
 40
0.6078782608649688
 40
0.6463275588797683
 40
0.6847452802462318
 40
0.7231228695215812
 40
0.7614522299831246
 40
0.7997261934236604
 40
0.8379392965658725
 40
0.8760890112500026
 40
0.914177628268556
 40
0.9522150517153051
 40
0.9902228021988916
 40
1.0
 40
1.0
 40
1.0
 40
1.0
 10
243.8368212387324
 20
-11.92544314108791
 30
0.0
 10
243.7997408012731
 20
-11.7118803251346
 30
0.0
 10
243.7194628190796
 20
-11.24952353780889
 30
0.0
 10
243.6604424654697
 20
-10.47989430459755
 30
0.0
 10
243.6480390154987
 20
-9.635635473962422
 30
0.0
 10
243.6925252747349
 20
-8.753791820698924
 30
0.0
 10
243.7924854567932
 20
-7.841300180181348
 30
0.0
 10
243.9483576386121
 20
-6.903122940870021
 30
0.0
 10
244.1595692654329
 20
-5.945085420383455
 30
0.0
 10
244.42529008223
 20
-4.973048768824986
 30
0.0
 10
244.7442334274141
 20
-3.993041333434778
 30
0.0
 10
245.1147242300701
 20
-3.011144188256862
 30
0.0
 10
245.5347016264709
 20
-2.033452661044533
 30
0.0
 10
246.0017422506875
 20
-1.066025340893872
 30
0.0
 10
246.5130793285957
 20
-0.1148423230942521
 30
0.0
 10
247.0656191464543
 20
0.8142278552418375
 30
0.0
 10
247.6559537690207
 20
1.715458073980354
 30
0.0
 10
248.2803894662224
 20
2.583318733588173
 30
0.0
 10
248.9349737753647
 20
3.412521712863359
 30
0.0
 10
249.6155263654736
 20
4.198065231660684
 30
0.0
 10
250.3176500072362
 20
4.935251971386403
 30
0.0
 10
251.0367597021026
 20
5.61974500629687
 30
0.0
 10
251.7680948864203
 20
6.247551169362345
 30
0.0
 10
252.5068143105605
 20
6.815285888873182
 30
0.0
 10
253.2478139548408
 20
7.319401554518487
 30
0.0
 10
253.986623045619
 20
7.759283070464325
 30
0.0
 10
254.7163542668615
 20
8.125940618930827
 30
0.0
 10
255.2604263462775
 20
8.36550724311797
 30
0.0
 10
255.5532286941036
 20
8.460138181563464
 30
0.0
 10
255.613138489428
 20
8.479500458525113
 30
0.0
  0
SPLINE
  5
105
330
1F
100
AcDbEntity
  8
0
  6
Continuous
 62
     7
370
    25
100
AcDbSpline
210
0.0
220
0.0
230
1.0
 70
     8
 71
     3
 72
    15
 73
    11
 74
     0
 42
0.00000001
 43
0.00000001
 40
0.0
 40
0.0
 40
0.0
 40
0.0
 40
0.1311539748733227
 40
0.2631135528702489
 40
0.3888941072969403
 40
0.5224670072736372
 40
0.6514897970461705
 40
0.7780021922198636
 40
0.903425246291631
 40
1.0
 40
1.0
 40
1.0
 40
1.0
 10
250.1893265285352
 20
31.94606576521989
 30
0.0
 10
250.2908339565088
 20
31.8820438500288
 30
0.0
 10
250.4944723139635
 20
31.75360676999552
 30
0.0
 10
250.7569964725434
 20
31.48290468629331
 30
0.0
 10
250.9965843798218
 20
31.14938416719101
 30
0.0
 10
251.2008781165683
 20
30.74708611800851
 30
0.0
 10
251.3655365759397
 20
30.27469990818355
 30
0.0
 10
251.4808176345573
 20
29.7491942381682
 30
0.0
 10
251.5444112965737
 20
29.22049373690782
 30
0.0
 10
251.5514928635578
 20
28.85442427288995
 30
0.0
 10
251.5545735272552
 20
28.69517464479139
 30
0.0
  0
SPLINE
  5
106
330
1F
100
AcDbEntity
  8
0
  6
Continuous
 62
     7
370
    25
100
AcDbSpline
210
0.0
220
0.0
230
1.0
 70
     8
 71
     3
 72
    32
 73
    28
 74
     0
 42
0.00000001
 43
0.00000001
 40
0.0
 40
0.0
 40
0.0
 40
0.0
 40
0.0213832483523877
 40
0.0623860927263965
 40
0.1035041745034379
 40
0.1447443201401138
 40
0.1861043769756608
 40
0.227569131363372
 40
0.2691166618322253
 40
0.3107218264120237
 40
0.3523580525045865
 40
0.3939981575490156
 40
0.435606353060644
 40
0.4771542667042014
 40
0.5186145713332192
 40
0.5599610318246908
 40
0.6011703513006578
 40
0.642225740696781
 40
0.6831233332877094
 40
0.723883134342433
 40
0.7645669345773877
 40
0.8052673909531075
 40
0.8461741137433109
 40
0.8876347993720791
 40
0.930197154435693
 40
0.9746037886148852
 40
1.0
 40
1.0
 40
1.0
 40
1.0
 10
251.5545735272552
 20
28.69517464479139
 30
0.0
 10
251.5531299096419
 20
28.58483996472717
 30
0.0
 10
251.5489181238176
 20
28.2629361329057
 30
0.0
 10
251.5013516048538
 20
27.70041091778635
 30
0.0
 10
251.3932063934949
 20
27.0036219912616
 30
0.0
 10
251.2301331194423
 20
26.28365973471983
 30
0.0
 10
251.0138959919838
 20
25.54922600380387
 30
0.0
 10
250.7458945968782
 20
24.80826990002694
 30
0.0
 10
250.4286006804542
 20
24.06909511718691
 30
0.0
 10
250.0651166546095
 20
23.33990479796548
 30
0.0
 10
249.6592290050126
 20
22.62877314523764
 30
0.0
 10
249.2153581887994
 20
21.94356696642155
 30
0.0
 10
248.7385010995128
 20
21.29180669291036
 30
0.0
 10
248.2341747222105
 20
20.68055992279919
 30
0.0
 10
247.708327073846
 20
20.11630777230389
 30
0.0
 10
247.1673098901294
 20
19.60488290963069
 30
0.0
 10
246.6178182673641
 20
19.15135747336656
 30
0.0
 10
246.0668050640483
 20
18.75991114125851
 30
0.0
 10
245.5213580153823
 20
18.43368830745922
 30
0.0
 10
244.9885067819977
 20
18.17464282148191
 30
0.0
 10
244.4751126181561
 20
17.98350673342628
 30
0.0
 10
243.9873824619223
 20
17.85955669885287
 30
0.0
 10
243.5303833254267
 20
17.80106629009047
 30
0.0
 10
243.1061779566384
 20
17.80439930718981
 30
0.0
 10
242.7162036782903
 20
17.8711914266177
 30
0.0
 10
242.4075553007835
 20
17.96970774606855
 30
0.0
 10
242.2417361130927
 20
18.07227266936517
 30
0.0
 10
242.1814064931716
 20
18.10958863337325
 30
0.0
  0
SPLINE
  5
107
330
1F
100
AcDbEntity
  8
0
  6
Continuous
 62
     7
370
    25
100
AcDbSpline
210
0.0
220
0.0
230
1.0
 70
     8
 71
     3
 72
    15
 73
    11
 74
     0
 42
0.00000001
 43
0.00000001
 40
0.0
 40
0.0
 40
0.0
 40
0.0
 40
0.131153974873315
 40
0.2631135528702445
 40
0.3888941072969314
 40
0.5224670072736278
 40
0.6514897970461554
 40
0.778002192219849
 40
0.9034252462916162
 40
1.0
 40
1.0
 40
1.0
 40
1.0
 10
228.7993463976422
 20
-5.102466485640279
 30
0.0
 10
228.9008538256158
 20
-5.16648840083137
 30
0.0
 10
229.1044921830705
 20
-5.294925480864634
 30
0.0
 10
229.3670163416504
 20
-5.565627564566848
 30
0.0
 10
229.6066042489288
 20
-5.899148083669134
 30
0.0
 10
229.8108979856752
 20
-6.301446132851626
 30
0.0
 10
229.9755564450467
 20
-6.773832342676573
 30
0.0
 10
230.0908375036643
 20
-7.299338012691904
 30
0.0
 10
230.1544311656807
 20
-7.828038513952301
 30
0.0
 10
230.1615127326647
 20
-8.194107977970207
 30
0.0
 10
230.1645933963622
 20
-8.353357606068787
 30
0.0
  0
SPLINE
  5
108
330
1F
100
AcDbEntity
  8
0
  6
Continuous
 62
     7
370
    25
100
AcDbSpline
210
0.0
220
0.0
230
1.0
 70
     8
 71
     3
 72
    32
 73
    28
 74
     0
 42
0.00000001
 43
0.00000001
 40
0.0
 40
0.0
 40
0.0
 40
0.0
 40
0.0213832483523877
 40
0.0623860927263905
 40
0.1035041745034339
 40
0.1447443201401089
 40
0.1861043769756557
 40
0.227569131363368
 40
0.2691166618322208
 40
0.31072182641202
 40
0.3523580525045811
 40
0.39399815754901
 40
0.4356063530606393
 40
0.4771542667041963
 40
0.5186145713332135
 40
0.5599610318246858
 40
0.6011703513006535
 40
0.642225740696775
 40
0.683123333287704
 40
0.7238831343424279
 40
0.7645669345773798
 40
0.8052673909530996
 40
0.8461741137433026
 40
0.8876347993720696
 40
0.9301971544356825
 40
0.974603788614876
 40
0.9999999999999999
 40
0.9999999999999999
 40
0.9999999999999999
 40
0.9999999999999999
 10
230.1645933963622
 20
-8.353357606068787
 30
0.0
 10
230.1631497787489
 20
-8.463692286133009
 30
0.0
 10
230.1589379929246
 20
-8.785596117954443
 30
0.0
 10
230.1113714739608
 20
-9.34812133307376
 30
0.0
 10
230.0032262626018
 20
-10.04491025959849
 30
0.0
 10
229.8401529885492
 20
-10.76487251614026
 30
0.0
 10
229.6239158610908
 20
-11.49930624705621
 30
0.0
 10
229.3559144659852
 20
-12.24026235083315
 30
0.0
 10
229.0386205495612
 20
-12.97943713367319
 30
0.0
 10
228.6751365237165
 20
-13.7086274528946
 30
0.0
 10
228.2692488741197
 20
-14.41975910562245
 30
0.0
 10
227.8253780579065
 20
-15.10496528443853
 30
0.0
 10
227.3485209686199
 20
-15.75672555794973
 30
0.0
 10
226.8441945913175
 20
-16.36797232806091
 30
0.0
 10
226.3183469429531
 20
-16.93222447855621
 30
0.0
 10
225.7773297592365
 20
-17.44364934122943
 30
0.0
 10
225.2278381364711
 20
-17.89717477749356
 30
0.0
 10
224.6768249331553
 20
-18.28862110960162
 30
0.0
 10
224.1313778844893
 20
-18.61484394340091
 30
0.0
 10
223.5985266511048
 20
-18.87388942937822
 30
0.0
 10
223.0851324872632
 20
-19.06502551743387
 30
0.0
 10
222.5974023310293
 20
-19.1889755520073
 30
0.0
 10
222.1404031945338
 20
-19.2474659607697
 30
0.0
 10
221.7161978257455
 20
-19.24413294367037
 30
0.0
 10
221.3262235473974
 20
-19.17734082424251
 30
0.0
 10
221.0175751698905
 20
-19.07882450479164
 30
0.0
 10
220.8517559821997
 20
-18.97625958149502
 30
0.0
 10
220.7914263622786
 20
-18.93894361748693
 30
0.0
  0
SPLINE
  5
109
330
1F
100
AcDbEntity
  8
0
  6
Continuous
 62
     7
370
    25
100
AcDbSpline
210
0.0
220
0.0
230
1.0
 70
     8
 71
     3
 72
    13
 73
     9
 74
     0
 42
0.00000001
 43
0.00000001
 40
0.0
 40
0.0
 40
0.0
 40
0.0
 40
0.007724392531763
 40
0.2347863289549559
 40
0.4621047720016404
 40
0.6895329019186185
 40
0.9169056525882638
 40
1.0
 40
1.0
 40
1.0
 40
1.0
 10
248.8272614577877
 20
21.42617087159191
 30
0.0
 10
248.8305237412706
 20
21.43457841154829
 30
0.0
 10
248.9296822912541
 20
21.69012930875909
 30
0.0
 10
249.1693984694193
 20
22.18860720987499
 30
0.0
 10
249.5456751472617
 20
22.91232544642624
 30
0.0
 10
249.9702606895567
 20
23.61175881885363
 30
0.0
 10
250.3266987491379
 20
24.1481766724356
 30
0.0
 10
250.5506367049165
 20
24.4356127588627
 30
0.0
 10
250.6105721325709
 20
24.51254301708281
 30
0.0
  0
SPLINE
  5
10A
330
1F
100
AcDbEntity
  8
0
  6
Continuous
 62
     7
370
    25
100
AcDbSpline
210
0.0
220
0.0
230
1.0
 70
     8
 71
     3
 72
    13
 73
     9
 74
     0
 42
0.00000001
 43
0.00000001
 40
0.0
 40
0.0
 40
0.0
 40
0.0
 40
0.0077243925317264
 40
0.2347863289549208
 40
0.4621047720016135
 40
0.6895329019185898
 40
0.9169056525882344
 40
1.0
 40
1.0
 40
1.0
 40
1.0
 10
227.4372813268947
 20
-15.62236137926829
 30
0.0
 10
227.4405436103775
 20
-15.61395383931194
 30
0.0
 10
227.539702160361
 20
-15.35840294210116
 30
0.0
 10
227.7794183385263
 20
-14.85992504098533
 30
0.0
 10
228.1556950163686
 20
-14.13620680443404
 30
0.0
 10
228.5802805586636
 20
-13.43677343200664
 30
0.0
 10
228.9367186182448
 20
-12.90035557842465
 30
0.0
 10
229.1606565740234
 20
-12.6129194919975
 30
0.0
 10
229.2205920016779
 20
-12.53598923377738
 30
0.0
  0
LWPOLYLINE
  5
10B
330
1F
100
AcDbEntity
  8
0
  6
Continuous
 62
     7
370
    25
100
AcDbPolyline
 90
      142
 70
   128
 43
0.0
 10
278.3639710406
 20
19.7106712378
 10
278.3313304804
 20
21.3832342285
 10
278.2334736047
 20
23.0147905116
 10
278.0705946992
 20
24.6021007831
 10
277.843017145
 20
26.1420135853
 10
277.5511927761
 20
27.6314715641
 10
277.195700983
 20
29.0675175384
 10
276.7772475615
 20
30.4473003719
 10
276.2966633123
 20
31.7680806334
 10
275.7549023909
 20
33.0272360361
 10
275.1530404134
 20
34.2222666434
 10
274.4922723212
 20
35.3507998327
 10
273.773910008
 20
36.4105950058
 10
272.9993797158
 20
37.3995480374
 10
272.1702192027
 20
38.315695453
 10
271.2880746903
 20
39.1572183265
 10
270.3546975947
 20
39.9224458922
 10
269.3719410499
 20
40.6098588616
 10
268.3417562279
 20
41.2180924399
 10
267.2661884654
 20
41.7459390356
 10
266.1473732025
 20
42.1923506582
 10
264.9875317436
 20
42.5564409987
 10
263.7889668463
 20
42.8374871894
 10
262.5540581504
 20
43.0349312392
 10
261.2852574527
 20
43.1483811411
 10
259.9850838397
 20
43.1776116509
 10
258.6561186856
 20
43.1225647342
 10
257.3010005278
 20
42.9833496814
 10
255.9224198279
 20
42.7602428911
 10
254.5231136303
 20
42.4536873213
 10
253.1058601279
 20
42.0642916097
 10
251.6734731465
 20
41.5928288653
 10
250.2287965576
 20
41.0402351339
 10
248.774698633
 20
40.4076075392
 10
247.3140663496
 20
39.6962021046
 10
245.8497996574
 20
38.9074312598
 10
244.3848057225
 20
38.0428610363
 10
242.9219931548
 20
37.1042079582
 10
241.4642662332
 20
36.0933356345
 10
240.0145191395
 20
35.0122510584
 10
238.5756302124
 20
33.8631006233
 10
237.1504562327
 20
32.6481658612
 10
235.7418267514
 20
31.3698589124
 10
234.3525384719
 20
30.030717737
 10
232.9853496976
 20
28.6334010761
 10
231.6429748552
 20
27.1806831723
 10
230.3280791057
 20
25.6754482627
 10
229.0432730528
 20
24.1206848519
 10
227.7911075601
 20
22.5194797786
 10
226.5740686863
 20
20.8750120874
 10
225.3945727493
 20
19.1905467165
 10
224.2549615292
 20
17.4694280162
 10
223.1574976186
 20
15.7150731082
 10
222.1043599305
 20
13.9309651019
 10
221.0976393723
 20
12.1206461784
 10
220.1393346944
 20
10.2877105586
 10
219.2313485221
 20
8.4357973663
 10
218.3754835779
 20
6.5685834039
 10
217.5734391025
 20
4.6897758518
 10
216.8268074808
 20
2.8031049084
 10
216.1370710808
 20
0.9123163844
 10
215.5055993104
 20
-0.9788357348
 10
214.9336458983
 20
-2.8665967415
 10
214.422346405
 20
-4.7472186612
 10
213.9727159684
 20
-6.616967693
 10
213.585647288
 20
-8.4721316233
 10
213.2619088529
 20
-10.3090271958
 10
213.0021434159
 20
-12.1240074245
 10
212.806866717
 20
-13.9134688341
 10
212.6764664602
 20
-15.6738586145
 10
212.6112015431
 20
-17.4016816749
 10
212.6112015431
 20
-19.0935075824
 10
212.6764664602
 20
-20.7459773734
 10
212.806866717
 20
-22.3558102221
 10
213.0021434159
 20
-23.9198099542
 10
213.2619088529
 20
-25.4348713932
 10
213.585647288
 20
-26.8979865247
 10
213.9727159684
 20
-28.3062504692
 10
214.422346405
 20
-29.6568672489
 10
214.9336458983
 20
-30.9471553392
 10
215.5055993104
 20
-32.1745529926
 10
216.1370710808
 20
-33.3366233246
 10
216.8268074808
 20
-34.4310591521
 10
217.5734391025
 20
-35.4556875741
 10
218.3754835779
 20
-36.4084742858
 10
219.2313485221
 20
-37.2875276172
 10
220.1393346944
 20
-38.0911022895
 10
221.0976393723
 20
-38.8176028794
 10
222.1043599305
 20
-39.4655869873
 10
223.1574976186
 20
-40.0337681006
 10
224.2549615292
 20
-40.5210181485
 10
225.3945727493
 20
-40.9263697411
 10
226.5740686863
 20
-41.2490180902
 10
227.7911075601
 20
-41.4883226074
 10
229.0432730528
 20
-41.6438081759
 10
230.3280791057
 20
-41.7151660932
 10
231.6429748552
 20
-41.7022546851
 10
232.9853496976
 20
-41.6050995857
 10
234.3525384719
 20
-41.4238936877
 10
235.7418267514
 20
-41.1589967585
 10
237.1504562327
 20
-40.8109347264
 10
238.5756302124
 20
-40.3803986365
 10
240.0145191395
 20
-39.8682432782
 10
241.4642662332
 20
-39.2754854886
 10
242.9219931548
 20
-38.6033021335
 10
244.3848057225
 20
-37.8530277706
 10
245.8497996574
 20
-37.0261520004
 10
247.3140663496
 20
-36.124316508
 10
248.774698633
 20
-35.1493118043
 10
250.2287965576
 20
-34.103073671
 10
251.6734731465
 20
-32.9876793171
 10
253.1058601279
 20
-31.8053432547
 10
254.5231136303
 20
-30.5584129027
 10
255.9224198279
 20
-29.2493639259
 10
257.3010005278
 20
-27.8807953198
 10
258.6561186856
 20
-26.4554242507
 10
259.9850838397
 20
-24.976080661
 10
261.2852574527
 20
-23.4457016504
 10
262.5540581504
 20
-21.8673256448
 10
263.7889668463
 20
-20.2440863637
 10
264.9875317436
 20
-18.5792065982
 10
266.1473732025
 20
-16.8759918133
 10
267.2661884654
 20
-15.1378235841
 10
268.3417562279
 20
-13.3681528827
 10
269.3719410499
 20
-11.5704932266
 10
270.3546975947
 20
-9.7484137025
 10
271.2880746903
 20
-7.9055318808
 10
272.1702192027
 20
-6.0455066327
 10
272.9993797158
 20
-4.1720308661
 10
273.773910008
 20
-2.2888241938
 10
274.4922723212
 20
-0.3996255483
 10
275.1530404134
 20
1.4918142414
 10
275.7549023909
 20
3.3817398966
 10
276.2966633123
 20
5.266399145
 10
276.7772475615
 20
7.1420501699
 10
277.195700983
 20
9.00496904
 10
277.5511927761
 20
10.8514571022
 10
277.843017145
 20
12.6778483254
 10
278.0705946992
 20
14.4805165789
 10
278.2334736047
 20
16.2558828317
 10
278.3313304804
 20
18.0004222586
 10
278.3639710406
 20
19.7106712378
  0
ARC
  5
10C
330
1F
100
AcDbEntity
  8
0
  6
Continuous
 62
     7
370
    25
100
AcDbCircle
 10
230.3811159574
 20
-27.0649893515
 30
0.0
 40
15.87823845628675
100
AcDbArc
 50
233.9686906323
 51
246.469302058
  0
ARC
  5
10D
330
1F
100
AcDbEntity
  8
0
  6
Continuous
 62
     7
370
    25
100
AcDbCircle
 10
262.0002176005
 20
27.7069052694
 30
0.0
 40
15.87822189266376
100
AcDbArc
 50
53.5805288862
 51
66.2069310236
  0
LWPOLYLINE
  5
10E
330
1F
100
AcDbEntity
  8
0
  6
Continuous
 62
     7
370
    25
100
AcDbPolyline
 90
        3
 70
   128
 43
0.0
 10
278.4928660014
 20
36.4057769266
 10
277.7866225635
 20
36.8974334473
 10
277.0097502085
 20
37.376258986
  0
ARC
  5
10F
330
1F
100
AcDbEntity
  8
0
  6
Continuous
 62
     7
370
    25
100
AcDbCircle
 10
237.4590248115
 20
-31.1319028238
 30
0.0
 40
15.89482887075856
100
AcDbArc
 50
240.0083244381
 51
246.1928361278
  0
LWPOLYLINE
  5
110
330
1F
100
AcDbEntity
  8
0
  6
Continuous
 62
     7
370
    25
100
AcDbPolyline
 90
       63
 70
   128
 43
0.0
 10
251.8474667461
 20
-20.2973404184
 10
251.8148153201
 20
-21.0596622593
 10
251.7171960899
 20
-21.8518601807
 10
251.555610761
 20
-22.6658051596
 10
251.3317174174
 20
-23.4931450193
 10
251.0478135078
 20
-24.3253901332
 10
250.7068122706
 20
-25.1540005402
 10
250.3122128399
 20
-25.9704735763
 10
249.8680643398
 20
-26.7664311232
 10
249.378924335
 20
-27.5337055794
 10
248.8498120637
 20
-28.2644236707
 10
248.286156934
 20
-28.9510872407
 10
247.6937428102
 20
-29.5866501919
 10
247.0786486629
 20
-30.1645907884
 10
246.4471861904
 20
-30.6789785776
 10
245.8058350521
 20
-31.1245352447
 10
245.1611763787
 20
-31.4966887754
 10
244.5198252404
 20
-31.7916203708
 10
243.8883627679
 20
-32.0063036337
 10
243.2732686205
 20
-32.1385356232
 10
242.6808544967
 20
-32.1869594603
 10
242.117199367
 20
-32.1510782508
 10
241.5880870958
 20
-32.0312601844
 10
241.098947091
 20
-31.8287347568
 10
240.6547985909
 20
-31.5455801528
 10
240.2601991601
 20
-31.1847019218
 10
239.9191979229
 20
-30.7498031629
 10
239.6352940134
 20
-30.2453465258
 10
239.4114006698
 20
-29.6765084182
 10
239.2498153409
 20
-29.049125889
 10
239.1521961107
 20
-28.3696367317
 10
239.1195446847
 20
-27.6450134248
 10
239.1521961107
 20
-26.8826915838
 10
239.2498153409
 20
-26.0904936625
 10
239.4114006698
 20
-25.2765486836
 10
239.6352940134
 20
-24.4492088239
 10
239.9191979229
 20
-23.61696371
 10
240.2601991601
 20
-22.788353303
 10
240.6547985909
 20
-21.9718802669
 10
241.098947091
 20
-21.17592272
 10
241.5880870958
 20
-20.4086482638
 10
242.117199367
 20
-19.6779301725
 10
242.6808544967
 20
-18.9912666025
 10
243.2732686205
 20
-18.3557036513
 10
243.8883627679
 20
-17.7777630548
 10
244.5198252404
 20
-17.2633752655
 10
245.1611763787
 20
-16.8178185984
 10
245.8058350521
 20
-16.4456650678
 10
246.4471861904
 20
-16.1507334724
 10
247.0786486629
 20
-15.9360502095
 10
247.6937428102
 20
-15.80381822
 10
248.286156934
 20
-15.7553943829
 10
248.8498120637
 20
-15.7912755924
 10
249.378924335
 20
-15.9110936587
 10
249.8680643398
 20
-16.1136190864
 10
250.3122128399
 20
-16.3967736904
 10
250.7068122706
 20
-16.7576519214
 10
251.0478135078
 20
-17.1925506803
 10
251.3317174174
 20
-17.6970073174
 10
251.555610761
 20
-18.265845425
 10
251.7171960899
 20
-18.8932279542
 10
251.8148153201
 20
-19.5727171114
 10
251.8474667461
 20
-20.2973404184
  0
LWPOLYLINE
  5
111
330
1F
100
AcDbEntity
  8
0
  6
Continuous
 62
     7
370
    25
100
AcDbPolyline
 90
       63
 70
   128
 43
0.0
 10
251.8474667461
 20
29.1033787007
 10
251.8148153201
 20
28.3410568597
 10
251.7171960899
 20
27.5488589384
 10
251.555610761
 20
26.7349139595
 10
251.3317174174
 20
25.9075740998
 10
251.0478135078
 20
25.0753289859
 10
250.7068122706
 20
24.2467185789
 10
250.3122128399
 20
23.4302455428
 10
249.8680643398
 20
22.6342879959
 10
249.378924335
 20
21.8670135397
 10
248.8498120637
 20
21.1362954484
 10
248.286156934
 20
20.4496318784
 10
247.6937428102
 20
19.8140689272
 10
247.0786486629
 20
19.2361283307
 10
246.4471861904
 20
18.7217405415
 10
245.8058350521
 20
18.2761838744
 10
245.1611763787
 20
17.9040303437
 10
244.5198252404
 20
17.6090987483
 10
243.8883627679
 20
17.3944154854
 10
243.2732686205
 20
17.2621834959
 10
242.6808544967
 20
17.2137596588
 10
242.117199367
 20
17.2496408683
 10
241.5880870958
 20
17.3694589347
 10
241.098947091
 20
17.5719843623
 10
240.6547985909
 20
17.8551389663
 10
240.2601991601
 20
18.2160171973
 10
239.9191979229
 20
18.6509159562
 10
239.6352940134
 20
19.1553725933
 10
239.4114006698
 20
19.7242107009
 10
239.2498153409
 20
20.3515932301
 10
239.1521961107
 20
21.0310823874
 10
239.1195446847
 20
21.7557056943
 10
239.1521961107
 20
22.5180275353
 10
239.2498153409
 20
23.3102254566
 10
239.4114006698
 20
24.1241704355
 10
239.6352940134
 20
24.9515102952
 10
239.9191979229
 20
25.7837554091
 10
240.2601991601
 20
26.6123658161
 10
240.6547985909
 20
27.4288388522
 10
241.098947091
 20
28.2247963991
 10
241.5880870958
 20
28.9920708553
 10
242.117199367
 20
29.7227889466
 10
242.6808544967
 20
30.4094525166
 10
243.2732686205
 20
31.0450154678
 10
243.8883627679
 20
31.6229560643
 10
244.5198252404
 20
32.1373438535
 10
245.1611763787
 20
32.5829005206
 10
245.8058350521
 20
32.9550540513
 10
246.4471861904
 20
33.2499856467
 10
247.0786486629
 20
33.4646689096
 10
247.6937428102
 20
33.5969008991
 10
248.286156934
 20
33.6453247362
 10
248.8498120637
 20
33.6094435267
 10
249.378924335
 20
33.4896254603
 10
249.8680643398
 20
33.2871000327
 10
250.3122128399
 20
33.0039454287
 10
250.7068122706
 20
32.6430671977
 10
251.0478135078
 20
32.2081684388
 10
251.3317174174
 20
31.7037118017
 10
251.555610761
 20
31.1348736941
 10
251.7171960899
 20
30.5074911649
 10
251.8148153201
 20
29.8280020076
 10
251.8474667461
 20
29.1033787007
  0
LWPOLYLINE
  5
112
330
1F
100
AcDbEntity
  8
0
  6
Continuous
 62
     7
370
    25
100
AcDbPolyline
 90
       81
 70
   128
 43
0.0
 10
256.0901074332
 20
6.8522434766
 10
256.0574108199
 20
5.8723923176
 10
255.9595225654
 20
4.8608315607
 10
255.7970461834
 20
3.8237978142
 10
255.5709833948
 20
2.7676847361
 10
255.282727952
 20
1.6990036147
 10
254.9340570454
 20
0.6243432245
 10
254.5271203473
 20
-0.4496707958
 10
254.0644267577
 20
-1.5164167928
 10
253.5488289363
 20
-2.5693179225
 10
252.9835057154
 20
-3.6018826994
 10
252.3719425004
 20
-4.6077450183
 10
251.7179097821
 20
-5.5807034034
 10
251.0254398895
 20
-6.5147592429
 10
250.2988021298
 20
-7.4041537718
 10
249.5424764665
 20
-8.2434035771
 10
248.7611258988
 20
-9.0273344048
 10
247.9595677127
 20
-9.7511130605
 10
247.142743781
 20
-10.4102772081
 10
246.3156900949
 20
-11.0007628816
 10
245.4835057154
 20
-11.5189295403
 10
244.6513213359
 20
-11.9615825146
 10
243.8242676498
 20
-12.3259927015
 10
243.0074437181
 20
-12.6099133913
 10
242.205885532
 20
-12.8115941183
 10
241.4245349643
 20
-12.9297914538
 10
240.668209301
 20
-12.963776672
 10
239.9415715413
 20
-12.9133402426
 10
239.2491016487
 20
-12.7787931231
 10
238.5950689304
 20
-12.5609648412
 10
237.9835057154
 20
-12.2611983807
 10
237.4181824944
 20
-11.8813419014
 10
236.9025846731
 20
-11.4237373449
 10
236.4398910835
 20
-10.8912059955
 10
236.0329543854
 20
-10.287031086
 10
235.6842834788
 20
-9.6149375556
 10
235.3960280359
 20
-8.8790690844
 10
235.1699652474
 20
-8.0839625463
 10
235.0074888654
 20
-7.2345200375
 10
234.9096006109
 20
-6.3359786535
 10
234.8769039976
 20
-5.3938782007
 10
234.9096006109
 20
-4.4140270417
 10
235.0074888654
 20
-3.4024662848
 10
235.1699652474
 20
-2.3654325383
 10
235.3960280359
 20
-1.3093194602
 10
235.6842834788
 20
-0.2406383388
 10
236.0329543854
 20
0.8340220514
 10
236.4398910835
 20
1.9080360718
 10
236.9025846731
 20
2.9747820687
 10
237.4181824944
 20
4.0276831984
 10
237.9835057154
 20
5.0602479753
 10
238.5950689304
 20
6.0661102942
 10
239.2491016487
 20
7.0390686793
 10
239.9415715413
 20
7.9731245188
 10
240.668209301
 20
8.8625190477
 10
241.4245349643
 20
9.7017688531
 10
242.205885532
 20
10.4856996807
 10
243.0074437181
 20
11.2094783364
 10
243.8242676498
 20
11.868642484
 10
244.6513213359
 20
12.4591281575
 10
245.4835057154
 20
12.9772948162
 10
246.3156900949
 20
13.4199477905
 10
247.142743781
 20
13.7843579775
 10
247.9595677127
 20
14.0682786672
 10
248.7611258988
 20
14.2699593942
 10
249.5424764665
 20
14.3881567297
 10
250.2988021298
 20
14.4221419479
 10
251.0254398895
 20
14.3717055186
 10
251.7179097821
 20
14.2371583991
 10
252.3719425004
 20
14.0193301171
 10
252.9835057154
 20
13.7195636566
 10
253.5488289363
 20
13.3397071773
 10
254.0644267577
 20
12.8821026209
 10
254.5271203473
 20
12.3495712714
 10
254.9340570454
 20
11.7453963619
 10
255.282727952
 20
11.0733028315
 10
255.5709833948
 20
10.3374343603
 10
255.7970461834
 20
9.5423278223
 10
255.9595225654
 20
8.6928853134
 10
256.0574108199
 20
7.7943439294
 10
256.0901074332
 20
6.8522434766
  0
LWPOLYLINE
  5
113
330
1F
100
AcDbEntity
  8
0
  6
Continuous
 62
     7
370
    25
100
AcDbPolyline
 90
       63
 70
   128
 43
0.0
 10
273.237446877
 20
16.7511918325
 10
273.204795451
 20
15.9888699915
 10
273.1071762208
 20
15.1966720702
 10
272.9455908919
 20
14.3827270912
 10
272.7216975483
 20
13.5553872316
 10
272.4377936387
 20
12.7231421177
 10
272.0967924015
 20
11.8945317107
 10
271.7021929708
 20
11.0780586746
 10
271.2580444707
 20
10.2821011277
 10
270.7689044659
 20
9.5148266715
 10
270.2397921946
 20
8.7841085801
 10
269.6761370649
 20
8.0974450102
 10
269.0837229411
 20
7.461882059
 10
268.4686287938
 20
6.8839414624
 10
267.8371663213
 20
6.3695536732
 10
267.195815183
 20
5.9239970061
 10
266.5511565096
 20
5.5518434755
 10
265.9098053713
 20
5.25691188
 10
265.2783428987
 20
5.0422286172
 10
264.6632487514
 20
4.9099966276
 10
264.0708346276
 20
4.8615727906
 10
263.5071794979
 20
4.8974540001
 10
262.9780672267
 20
5.0172720664
 10
262.4889272219
 20
5.2197974941
 10
262.0447787218
 20
5.5029520981
 10
261.650179291
 20
5.8638303291
 10
261.3091780538
 20
6.298729088
 10
261.0252741443
 20
6.8031857251
 10
260.8013808007
 20
7.3720238326
 10
260.6397954718
 20
7.9994063619
 10
260.5421762416
 20
8.6788955191
 10
260.5095248156
 20
9.4035188261
 10
260.5421762416
 20
10.165840667
 10
260.6397954718
 20
10.9580385883
 10
260.8013808007
 20
11.7719835673
 10
261.0252741443
 20
12.599323427
 10
261.3091780538
 20
13.4315685409
 10
261.650179291
 20
14.2601789479
 10
262.0447787218
 20
15.076651984
 10
262.4889272219
 20
15.8726095309
 10
262.9780672267
 20
16.6398839871
 10
263.5071794979
 20
17.3706020784
 10
264.0708346276
 20
18.0572656484
 10
264.6632487514
 20
18.6928285996
 10
265.2783428987
 20
19.2707691961
 10
265.9098053713
 20
19.7851569853
 10
266.5511565096
 20
20.2307136524
 10
267.195815183
 20
20.6028671831
 10
267.8371663213
 20
20.8977987785
 10
268.4686287938
 20
21.1124820414
 10
269.0837229411
 20
21.2447140309
 10
269.6761370649
 20
21.293137868
 10
270.2397921946
 20
21.2572566584
 10
270.7689044659
 20
21.1374385921
 10
271.2580444707
 20
20.9349131645
 10
271.7021929708
 20
20.6517585605
 10
272.0967924015
 20
20.2908803295
 10
272.4377936387
 20
19.8559815706
 10
272.7216975483
 20
19.3515249335
 10
272.9455908919
 20
18.7826868259
 10
273.1071762208
 20
18.1553042966
 10
273.204795451
 20
17.4758151394
 10
273.237446877
 20
16.7511918325
  0
LWPOLYLINE
  5
114
330
1F
100
AcDbEntity
  8
0
  6
Continuous
 62
     7
370
    25
100
AcDbPolyline
 90
       63
 70
   128
 43
0.0
 10
230.4574866152
 20
-7.9451535502
 10
230.4248351892
 20
-8.7074753911
 10
230.327215959
 20
-9.4996733124
 10
230.1656306301
 20
-10.3136182914
 10
229.9417372865
 20
-11.1409581511
 10
229.6578333769
 20
-11.973203265
 10
229.3168321397
 20
-12.801813672
 10
228.922232709
 20
-13.618286708
 10
228.4780842089
 20
-14.414244255
 10
227.9889442041
 20
-15.1815187112
 10
227.4598319328
 20
-15.9122368025
 10
226.8961768031
 20
-16.5989003725
 10
226.3037626794
 20
-17.2344633237
 10
225.688668532
 20
-17.8124039202
 10
225.0572060595
 20
-18.3267917094
 10
224.4158549212
 20
-18.7723483765
 10
223.7711962478
 20
-19.1445019072
 10
223.1298451095
 20
-19.4394335026
 10
222.498382637
 20
-19.6541167655
 10
221.8832884896
 20
-19.786348755
 10
221.2908743658
 20
-19.8347725921
 10
220.7272192361
 20
-19.7988913825
 10
220.1981069649
 20
-19.6790733162
 10
219.7089669601
 20
-19.4765478886
 10
219.26481846
 20
-19.1933932845
 10
218.8702190292
 20
-18.8325150536
 10
218.529217792
 20
-18.3976162947
 10
218.2453138825
 20
-17.8931596575
 10
218.0214205389
 20
-17.32432155
 10
217.85983521
 20
-16.6969390207
 10
217.7622159798
 20
-16.0174498635
 10
217.7295645538
 20
-15.2928265566
 10
217.7622159798
 20
-14.5305047156
 10
217.85983521
 20
-13.7383067943
 10
218.0214205389
 20
-12.9243618153
 10
218.2453138825
 20
-12.0970219556
 10
218.529217792
 20
-11.2647768417
 10
218.8702190292
 20
-10.4361664347
 10
219.26481846
 20
-9.6196933987
 10
219.7089669601
 20
-8.8237358518
 10
220.1981069649
 20
-8.0564613955
 10
220.7272192361
 20
-7.3257433042
 10
221.2908743658
 20
-6.6390797342
 10
221.8832884896
 20
-6.003516783
 10
222.498382637
 20
-5.4255761865
 10
223.1298451095
 20
-4.9111883973
 10
223.7711962478
 20
-4.4656317302
 10
224.4158549212
 20
-4.0934781995
 10
225.0572060595
 20
-3.7985466041
 10
225.688668532
 20
-3.5838633413
 10
226.3037626794
 20
-3.4516313517
 10
226.8961768031
 20
-3.4032075147
 10
227.4598319328
 20
-3.4390887242
 10
227.9889442041
 20
-3.5589067905
 10
228.4780842089
 20
-3.7614322182
 10
228.922232709
 20
-4.0445868222
 10
229.3168321397
 20
-4.4054650531
 10
229.6578333769
 20
-4.8403638121
 10
229.9417372865
 20
-5.3448204492
 10
230.1656306301
 20
-5.9136585567
 10
230.327215959
 20
-6.541041086
 10
230.4248351892
 20
-7.2205302432
 10
230.4574866152
 20
-7.9451535502
  0
LINE
  5
115
330
1F
100
AcDbEntity
  8
0
  6
Continuous
 62
     7
370
    25
100
AcDbLine
 10
253.190043625
 20
12.4456626554
 30
0.0
 11
253.1373599196
 21
12.4756219532
 31
0.0
  0
LINE
  5
116
330
1F
100
AcDbEntity
  8
0
  6
Continuous
 62
     7
370
    25
100
AcDbLine
 10
239.1588684194
 20
-11.7848786192
 30
0.0
 11
239.1911813681
 21
-11.8037054913
 31
0.0
  0
LWPOLYLINE
  5
117
330
1F
100
AcDbEntity
  8
0
  6
Continuous
 62
     1
370
    25
100
AcDbPolyline
 90
       53
 70
   128
 43
0.0
 10
279.7781846029
 20
19.7106712378
 10
279.7453099781
 20
17.9760723106
 10
279.6467504572
 20
16.2069127083
 10
279.4826989752
 20
14.406655644
 10
279.2534766704
 20
12.5788252054
 10
278.9595322565
 20
10.7269994563
 10
278.6014411432
 20
8.8548034328
 10
278.1799043109
 20
6.9659020463
 10
277.6957469376
 20
5.0639929101
 10
277.1499167842
 20
3.1527991006
 10
276.5434823388
 20
1.2360618695
 10
275.8776307253
 20
-0.6824666801
 10
275.1536653795
 20
-2.5990309385
 10
274.3730034975
 20
-4.5098791411
 10
273.5371732618
 20
-6.4112707129
 10
272.6478108491
 20
-8.2994835906
 10
271.7066572283
 20
-10.1708215087
 10
270.7155547516
 20
-12.0216212355
 10
269.6764435488
 20
-13.8482597435
 10
268.5913577288
 20
-15.647161302
 10
267.4624213981
 20
-17.414804477
 10
266.2918445026
 20
-19.1477290236
 10
265.0819185014
 20
-20.842542661
 10
263.8350118816
 20
-22.4959277116
 10
262.5535655214
 20
-24.1046475967
 10
261.2400879122
 20
-25.6655531715
 10
259.8971502482
 20
-27.17558889
 10
258.5273813929
 20
-28.6317987865
 10
257.1334627332
 20
-30.0313322617
 10
255.7181229302
 20
-31.3714496631
 10
254.2841325781
 20
-32.6495276479
 10
252.8342987805
 20
-33.8630643184
 10
251.3714596549
 20
-35.0096841197
 10
249.8984787777
 20
-36.0871424896
 10
248.4182395781
 20
-37.0933302528
 10
246.933639694
 20
-38.0262777495
 10
245.4475852992
 20
-38.8841586911
 10
243.962985415
 20
-39.6652937354
 10
242.4827462155
 20
-40.3681537739
 10
241.0097653383
 20
-40.991362925
 10
239.5469262127
 20
-41.5337012277
 10
238.097092415
 20
-41.9941070291
 10
236.663102063
 20
-42.3716790633
 10
235.24776226
 20
-42.6656782153
 10
233.8538436002
 20
-42.8755289679
 10
232.4840747449
 20
-43.0008205286
 10
231.1411370809
 20
-43.041307633
 10
229.8276594718
 20
-42.996911026
 10
228.5462131116
 20
-42.8677176157
 10
227.2993064918
 20
-42.6539803046
 10
226.0893804906
 20
-42.3561174933
 10
224.918803595
 20
-41.9747122623
 10
224.041882411
 20
-41.6228935454
  0
LWPOLYLINE
  5
118
330
1F
100
AcDbEntity
  8
0
  6
Continuous
 62
     1
370
    25
100
AcDbPolyline
 90
       18
 70
   128
 43
0.0
 10
271.4269970009
 20
40.4839847718
 10
271.7066572283
 20
40.2729768421
 10
272.6478108491
 20
39.488271765
 10
273.5371732618
 20
38.6268948721
 10
274.3730034975
 20
37.6905323493
 10
275.1536653795
 20
36.6810171701
 10
275.8776307253
 20
35.6003255079
 10
276.5434823388
 20
34.4505728674
 10
277.1499167842
 20
33.2340099434
 10
277.6957469376
 20
31.9530182148
 10
278.1799043109
 20
30.6101052832
 10
278.6014411432
 20
29.2078999638
 10
278.9595322565
 20
27.7491471392
 10
279.2534766704
 20
26.2367023866
 10
279.4826989752
 20
24.6735263876
 10
279.6467504572
 20
23.0626791328
 10
279.7453099781
 20
21.4073139311
 10
279.7781846029
 20
19.7106712378
  0
LWPOLYLINE
  5
119
330
1F
100
AcDbEntity
  8
0
  6
Continuous
 62
     1
370
    25
100
AcDbPolyline
 90
       18
 70
   128
 43
0.0
 10
286.8492524148
 20
15.6286306787
 10
286.81637779
 20
17.325273372
 10
286.7178182691
 20
18.9806385737
 10
286.553766787
 20
20.5914858285
 10
286.3245444823
 20
22.1546618275
 10
286.0306000683
 20
23.66710658
 10
285.6725089551
 20
25.1258594046
 10
285.2509721228
 20
26.5280647241
 10
284.7668147495
 20
27.8709776557
 10
284.2209845961
 20
29.1519693842
 10
283.6145501506
 20
30.3685323083
 10
282.9486985371
 20
31.5182849488
 10
282.2247331913
 20
32.598976611
 10
281.4440713094
 20
33.6084917902
 10
280.6082410737
 20
34.544854313
 10
279.718878661
 20
35.4062312058
 10
278.7777250402
 20
36.190936283
 10
278.4928660014
 20
36.4057769266
  0
LWPOLYLINE
  5
11A
330
1F
100
AcDbEntity
  8
0
  6
Continuous
 62
     1
370
    25
100
AcDbPolyline
 90
       53
 70
   128
 43
0.0
 10
231.0429230614
 20
-45.6742280562
 10
231.9898714069
 20
-46.0567528215
 10
233.1604483025
 20
-46.4381580524
 10
234.3703743036
 20
-46.7360208637
 10
235.6172809235
 20
-46.9497581749
 10
236.8987272836
 20
-47.0789515851
 10
238.2122048928
 20
-47.1233481921
 10
239.5551425568
 20
-47.0828610877
 10
240.9249114121
 20
-46.957569527
 10
242.3188300719
 20
-46.7477187744
 10
243.7341698748
 20
-46.4537196224
 10
245.1681602269
 20
-46.0761475882
 10
246.6179940246
 20
-45.6157417868
 10
248.0808331501
 20
-45.0734034842
 10
249.5538140273
 20
-44.450194333
 10
251.0340532269
 20
-43.7473342945
 10
252.518653111
 20
-42.9661992502
 10
254.0047075058
 20
-42.1083183086
 10
255.48930739
 20
-41.1753708119
 10
256.9695465896
 20
-40.1691830487
 10
258.4425274667
 20
-39.0917246788
 10
259.9053665923
 20
-37.9451048775
 10
261.35520039
 20
-36.731568207
 10
262.7891907421
 20
-35.4534902222
 10
264.204530545
 20
-34.1133728208
 10
265.5984492048
 20
-32.7138393456
 10
266.9682180601
 20
-31.2576294491
 10
268.3111557241
 20
-29.7475937306
 10
269.6246333332
 20
-28.1866881558
 10
270.9060796934
 20
-26.5779682707
 10
272.1529863132
 20
-24.9245832201
 10
273.3629123144
 20
-23.2297695828
 10
274.53348921
 20
-21.4968450361
 10
275.6624255407
 20
-19.7292018612
 10
276.7475113607
 20
-17.9303003026
 10
277.7866225635
 20
-16.1036617946
 10
278.7777250402
 20
-14.2528620678
 10
279.718878661
 20
-12.3815241497
 10
280.6082410737
 20
-10.493311272
 10
281.4440713094
 20
-8.5919197002
 10
282.2247331913
 20
-6.6810714976
 10
282.9486985371
 20
-4.7645072392
 10
283.6145501506
 20
-2.8459786896
 10
284.2209845961
 20
-0.9292414585
 10
284.7668147495
 20
0.981952351
 10
285.2509721228
 20
2.8838614872
 10
285.6725089551
 20
4.7727628737
 10
286.0306000683
 20
6.6449588972
 10
286.3245444823
 20
8.4967846463
 10
286.553766787
 20
10.3246150849
 10
286.7178182691
 20
12.1248721492
 10
286.81637779
 20
13.8940317515
 10
286.8492524148
 20
15.6286306787
  0
LWPOLYLINE
  5
11B
330
1F
100
AcDbEntity
  8
0
  6
Continuous
 62
     1
370
    25
100
AcDbPolyline
 90
       31
 70
   128
 43
0.0
 10
271.5810838884
 20
19.5970707225
 10
271.2427624836
 20
19.7619683171
 10
270.7551460629
 20
19.9085167354
 10
270.2303109057
 20
19.9701902126
 10
269.6744102244
 20
19.9462656836
 10
269.0939614461
 20
19.8370236417
 10
268.4957698022
 20
19.6437448499
 10
267.8868485426
 20
19.3686953254
 10
267.2743367124
 20
19.0150997724
 10
266.6654154528
 20
18.5871037753
 10
266.0672238088
 20
18.089725196
 10
265.4867750305
 20
17.5287953435
 10
264.9308743492
 20
16.9108906075
 10
264.406039192
 20
16.2432553561
 10
263.9184227713
 20
15.5337170021
 10
263.4737419439
 20
14.7905942341
 10
263.0772101857
 20
14.022599487
 10
262.7334764693
 20
13.2387367971
 10
262.446570758
 20
12.4481962376
 10
262.219856759
 20
11.660246174
 10
262.0559924868
 20
10.8841246002
 10
261.9568991
 20
10.1289308321
 10
261.923738378
 20
9.4035188261
 10
261.9568991
 20
8.7163933747
 10
262.0559924868
 20
8.0756103957
 10
262.219856759
 20
7.4886824835
 10
262.446570758
 20
6.9624908314
 10
262.7334764693
 20
6.5032045553
 10
263.0772101857
 20
6.1162083669
 10
263.4737419439
 20
5.8060394426
 10
263.5617617265
 20
5.751925301
  0
LWPOLYLINE
  5
11C
330
1F
100
AcDbEntity
  8
0
  6
Continuous
 62
     1
370
    25
100
AcDbPolyline
 90
       31
 70
   128
 43
0.0
 10
250.1911037575
 20
-17.4514615283
 10
249.8527823527
 20
-17.2865639337
 10
249.365165932
 20
-17.1400155155
 10
248.8403307748
 20
-17.0783420383
 10
248.2844300935
 20
-17.1022665673
 10
247.7039813152
 20
-17.2115086092
 10
247.1057896713
 20
-17.4047874009
 10
246.4968684117
 20
-17.6798369254
 10
245.8843565815
 20
-18.0334324785
 10
245.2754353219
 20
-18.4614284756
 10
244.6772436779
 20
-18.9588070549
 10
244.0967948996
 20
-19.5197369074
 10
243.5408942183
 20
-20.1376416434
 10
243.0160590611
 20
-20.8052768948
 10
242.5284426404
 20
-21.5148152488
 10
242.083761813
 20
-22.2579380168
 10
241.6872300548
 20
-23.0259327639
 10
241.3434963384
 20
-23.8097954538
 10
241.0565906271
 20
-24.6003360132
 10
240.8298766281
 20
-25.3882860769
 10
240.6660123559
 20
-26.1644076507
 10
240.5669189691
 20
-26.9196014188
 10
240.5337582471
 20
-27.6450134248
 10
240.5669189691
 20
-28.3321388761
 10
240.6660123559
 20
-28.9729218552
 10
240.8298766281
 20
-29.5598497673
 10
241.0565906271
 20
-30.0860414195
 10
241.3434963384
 20
-30.5453276956
 10
241.6872300548
 20
-30.932323884
 10
242.083761813
 20
-31.2424928082
 10
242.1717815956
 20
-31.2966069498
  0
ARC
  5
11D
330
1F
100
AcDbEntity
  8
0
  6
Continuous
 62
     1
370
    25
100
AcDbCircle
 10
282.3053327271
 20
4.1682964438
 30
0.0
 40
13.45850793894171
100
AcDbArc
 50
137.2519850892
 51
162.5789670314
  0
ARC
  5
11E
330
1F
100
AcDbEntity
  8
0
  6
Continuous
 62
     1
370
    25
100
AcDbCircle
 10
260.9153525962
 20
-32.8802358071
 30
0.0
 40
13.45850793894008
100
AcDbArc
 50
137.2519850892
 51
162.5789670314
  0
LWPOLYLINE
  5
11F
330
1F
100
AcDbEntity
  8
0
  6
Continuous
 62
     1
370
    25
100
AcDbPolyline
 90
       41
 70
   128
 43
0.0
 10
253.1373599196
 20
12.4756219532
 10
252.9731694348
 20
12.563333922
 10
252.3628466331
 20
12.8216958935
 10
251.7114486316
 20
12.9968676538
 10
251.0233103765
 20
13.0876834636
 10
250.3030113144
 20
13.0935389588
 10
249.5553449166
 20
13.014395172
 10
248.7852867797
 20
12.8507787921
 10
247.9979615136
 20
12.6037786591
 10
247.1986086379
 20
12.2750385181
 10
246.3925477142
 20
11.8667460805
 10
245.585142945
 20
11.3816184651
 10
244.7817674757
 20
10.8228841161
 10
243.9877676376
 20
10.1942613185
 10
243.2084273686
 20
9.4999334533
 10
242.4489330496
 20
8.7445211578
 10
241.71433899
 20
7.9330515763
 10
241.009533792
 20
7.0709249049
 10
240.339207818
 20
6.1638784544
 10
239.7078219767
 20
5.2179484693
 10
239.1195780367
 20
4.2394299574
 10
238.5783906645
 20
3.2348347982
 10
238.0878613726
 20
2.2108484067
 10
237.6512545525
 20
1.1742852432
 10
237.2714757507
 20
0.1320434647
 10
236.9510523324
 20
-0.9089409818
 10
236.6921166626
 20
-1.9417405165
 10
236.4963919154
 20
-2.9594820289
 10
236.3651806067
 20
-3.9553926172
 10
236.2993559261
 20
-4.9228446607
 10
236.2993559261
 20
-5.8553999257
 10
236.3651806067
 20
-6.7468524107
 10
236.4963919154
 20
-7.5912696466
 10
236.6921166626
 20
-8.383032176
 10
236.9510523324
 20
-9.1168709498
 10
237.2714757507
 20
-9.7879023922
 10
237.6512545525
 20
-10.3916608995
 10
238.0878613726
 20
-10.9241285585
 10
238.5783906645
 20
-11.3817618848
 10
239.1195780367
 20
-11.7615154041
 10
239.1588684194
 20
-11.7848786192
  0
LWPOLYLINE
  5
120
330
1F
100
AcDbEntity
  8
0
  6
Continuous
 62
     1
370
    25
100
AcDbPolyline
 90
       27
 70
   128
 43
0.0
 10
243.6373670916
 20
-11.9936688342
 10
243.5674597272
 20
-11.6733102057
 10
243.4362484185
 20
-10.8288929698
 10
243.370423738
 20
-9.9374404848
 10
243.370423738
 20
-9.0048852198
 10
243.4362484185
 20
-8.0374331763
 10
243.5674597272
 20
-7.041522588
 10
243.7631844744
 20
-6.0237810756
 10
244.0221201443
 20
-4.9909815409
 10
244.3425435626
 20
-3.9499970944
 10
244.7223223644
 20
-2.9077553159
 10
245.1589291844
 20
-1.8711921525
 10
245.6494584763
 20
-0.8472057609
 10
246.1906458486
 20
0.1573893983
 10
246.7788897886
 20
1.1359079101
 10
247.4102756298
 20
2.0818378953
 10
248.0806016039
 20
2.9888843458
 10
248.7854068018
 20
3.8510110172
 10
249.5200008614
 20
4.6624805987
 10
250.2794951804
 20
5.4178928942
 10
251.0588354495
 20
6.1122207594
 10
251.8528352876
 20
6.740843557
 10
252.6562107568
 20
7.2995779059
 10
253.4636155261
 20
7.7847055213
 10
254.2696764497
 20
8.192997959
 10
255.0690293254
 20
8.5217381
 10
255.5902026709
 20
8.6940017671
  0
LWPOLYLINE
  5
121
330
1F
100
AcDbEntity
  8
0
  6
Continuous
 62
     1
370
    25
100
AcDbPolyline
 90
       31
 70
   128
 43
0.0
 10
250.1911037575
 20
31.9492575908
 10
249.8527823527
 20
32.1141551854
 10
249.365165932
 20
32.2607036036
 10
248.8403307748
 20
32.3223770808
 10
248.2844300935
 20
32.2984525518
 10
247.7039813152
 20
32.1892105099
 10
247.1057896713
 20
31.9959317182
 10
246.4968684117
 20
31.7208821937
 10
245.8843565815
 20
31.3672866406
 10
245.2754353219
 20
30.9392906435
 10
244.6772436779
 20
30.4419120642
 10
244.0967948996
 20
29.8809822117
 10
243.5408942183
 20
29.2630774757
 10
243.0160590611
 20
28.5954422243
 10
242.5284426404
 20
27.8859038703
 10
242.083761813
 20
27.1427811023
 10
241.6872300548
 20
26.3747863552
 10
241.3434963384
 20
25.5909236653
 10
241.0565906271
 20
24.8003831059
 10
240.8298766281
 20
24.0124330422
 10
240.6660123559
 20
23.2363114684
 10
240.5669189691
 20
22.4811177003
 10
240.5337582471
 20
21.7557056943
 10
240.5669189691
 20
21.0685802429
 10
240.6660123559
 20
20.4277972639
 10
240.8298766281
 20
19.8408693518
 10
241.0565906271
 20
19.3146776996
 10
241.3434963384
 20
18.8553914235
 10
241.6872300548
 20
18.4683952351
 10
242.083761813
 20
18.1582263109
 10
242.1717815956
 20
18.1041121693
  0
LWPOLYLINE
  5
122
330
1F
100
AcDbEntity
  8
0
  6
Continuous
 62
     1
370
    25
100
AcDbPolyline
 90
       31
 70
   128
 43
0.0
 10
228.8011236266
 20
-5.0992746601
 10
228.4628022218
 20
-4.9343770655
 10
227.9751858011
 20
-4.7878286473
 10
227.450350644
 20
-4.7261551701
 10
226.8944499626
 20
-4.750079699
 10
226.3140011844
 20
-4.8593217409
 10
225.7158095404
 20
-5.0526005327
 10
225.1068882808
 20
-5.3276500572
 10
224.4943764506
 20
-5.6812456103
 10
223.885455191
 20
-6.1092416073
 10
223.287263547
 20
-6.6066201867
 10
222.7068147687
 20
-7.1675500392
 10
222.1509140874
 20
-7.7854547751
 10
221.6260789302
 20
-8.4530900266
 10
221.1384625096
 20
-9.1626283805
 10
220.6937816821
 20
-9.9057511486
 10
220.297249924
 20
-10.6737458956
 10
219.9535162075
 20
-11.4576085856
 10
219.6666104962
 20
-12.248149145
 10
219.4398964972
 20
-13.0360992086
 10
219.276032225
 20
-13.8122207824
 10
219.1769388382
 20
-14.5674145506
 10
219.1437781162
 20
-15.2928265566
 10
219.1769388382
 20
-15.9799520079
 10
219.276032225
 20
-16.6207349869
 10
219.4398964972
 20
-17.2076628991
 10
219.6666104962
 20
-17.7338545512
 10
219.9535162075
 20
-18.1931408273
 10
220.297249924
 20
-18.5801370158
 10
220.6937816821
 20
-18.89030594
 10
220.7818014647
 20
-18.9444200816
  0
ARC
  5
123
330
1F
100
AcDbEntity
  8
0
  6
Continuous
 62
     1
370
    25
100
AcDbCircle
 10
260.9153525962
 20
16.520483312
 30
0.0
 40
13.45850793894057
100
AcDbArc
 50
137.2519850892
 51
162.5789670314
  0
ARC
  5
124
330
1F
100
AcDbEntity
  8
0
  6
Continuous
 62
     1
370
    25
100
AcDbCircle
 10
239.5253724653
 20
-20.5280489388
 30
0.0
 40
13.45850793894066
100
AcDbArc
 50
137.2519850892
 51
162.5789670314
  0
ENDSEC
  0
SECTION
  2
OBJECTS
  0
DICTIONARY
  5
C
330
0
100
AcDbDictionary
281
     1
  3
ACAD_GROUP
350
D
  3
ACAD_LAYOUT
350
1A
  3
ACAD_MLINESTYLE
350
17
  3
ACAD_PLOTSETTINGS
350
19
  3
ACAD_PLOTSTYLENAME
350
E
  3
ACAD_SCALELIST
350
47
  3
DWGPROPS
350
125
  0
DICTIONARY
  5
D
102
{ACAD_REACTORS
330
C
102
}
330
C
100
AcDbDictionary
281
     1
  0
DICTIONARY
  5
1A
102
{ACAD_REACTORS
330
C
102
}
330
C
100
AcDbDictionary
281
     1
  3
Layout1
350
1E
  3
Layout2
350
26
  3
Model
350
22
  0
DICTIONARY
  5
17
102
{ACAD_REACTORS
330
C
102
}
330
C
100
AcDbDictionary
281
     1
  3
Standard
350
18
  0
DICTIONARY
  5
19
102
{ACAD_REACTORS
330
C
102
}
330
C
100
AcDbDictionary
281
     1
  0
ACDBDICTIONARYWDFLT
  5
E
102
{ACAD_REACTORS
330
C
102
}
330
C
100
AcDbDictionary
281
     1
  3
Normal
350
F
100
AcDbDictionaryWithDefault
340
F
  0
DICTIONARY
  5
47
102
{ACAD_REACTORS
330
C
102
}
330
C
100
AcDbDictionary
281
     1
  3
A0
350
48
  3
A1
350
49
  3
A2
350
4A
  3
A3
350
4B
  3
A4
350
4C
  3
A5
350
4D
  3
A6
350
4E
  3
A7
350
4F
  3
A8
350
50
  3
A9
350
51
  3
B0
350
52
  3
B1
350
53
  3
B2
350
54
  3
B3
350
55
  3
B4
350
56
  3
B5
350
57
  3
B6
350
58
  3
B7
350
59
  3
B8
350
5A
  3
B9
350
5B
  3
C0
350
5C
  3
C1
350
5D
  3
C2
350
5E
  3
C3
350
5F
  3
C4
350
60
  3
C5
350
61
  3
C6
350
62
  3
C7
350
63
  3
C8
350
64
  3
C9
350
65
  3
D0
350
66
  3
D1
350
67
  3
D2
350
68
  0
XRECORD
  5
125
102
{ACAD_REACTORS
330
C
102
}
330
C
100
AcDbXrecord
280
     1
  1
DWGPROPS COOKIE
  2

  3

  4

  6

  7

  8
b.kav
  9

300
=
301
=
302
=
303
=
304
=
305
=
306
=
307
=
308
=
309
=
 40
0.0
 41
2459741.463604132
 42
2459741.463605567
  1

 90
        0
  0
LAYOUT
  5
1E
102
{ACAD_REACTORS
330
1A
102
}
330
1A
100
AcDbPlotSettings
  1

  2
none_device
  4

  6

 40
0.0
 41
0.0
 42
0.0
 43
0.0
 44
0.0
 45
0.0
 46
0.0
 47
0.0
 48
0.0
 49
0.0
140
0.0
141
0.0
142
1.0
143
1.0
 70
   688
 72
     1
 73
     0
 74
     5
  7

 75
    16
147
1.0
148
0.0
149
0.0
100
AcDbLayout
  1
Layout1
 70
     1
 71
     1
 10
0.0
 20
0.0
 11
420.0
 21
297.0
 12
0.0
 22
0.0
 32
0.0
 14
1.0000000000E+20
 24
1.0000000000E+20
 34
1.0000000000E+20
 15
-1.0000000000E+20
 25
-1.0000000000E+20
 35
-1.0000000000E+20
146
0.0
 13
0.0
 23
0.0
 33
0.0
 16
1.0
 26
0.0
 36
0.0
 17
0.0
 27
1.0
 37
0.0
 76
     0
330
1B
  0
LAYOUT
  5
26
102
{ACAD_REACTORS
330
1A
102
}
330
1A
100
AcDbPlotSettings
  1

  2
none_device
  4

  6

 40
0.0
 41
0.0
 42
0.0
 43
0.0
 44
0.0
 45
0.0
 46
0.0
 47
0.0
 48
0.0
 49
0.0
140
0.0
141
0.0
142
1.0
143
1.0
 70
   688
 72
     1
 73
     0
 74
     5
  7

 75
    16
147
1.0
148
0.0
149
0.0
100
AcDbLayout
  1
Layout2
 70
     1
 71
     2
 10
0.0
 20
0.0
 11
0.0
 21
0.0
 12
0.0
 22
0.0
 32
0.0
 14
0.0
 24
0.0
 34
0.0
 15
0.0
 25
0.0
 35
0.0
146
0.0
 13
0.0
 23
0.0
 33
0.0
 16
1.0
 26
0.0
 36
0.0
 17
0.0
 27
1.0
 37
0.0
 76
     0
330
23
  0
LAYOUT
  5
22
102
{ACAD_REACTORS
330
1A
102
}
330
1A
100
AcDbPlotSettings
  1

  2
none_device
  4
Letter_(8.50_x_11.00_Inches)
  6

 40
6.35
 41
6.35
 42
6.35000508
 43
6.35000508
 44
215.9
 45
279.4
 46
0.0
 47
0.0
 48
0.0
 49
0.0
140
0.0
141
0.0
142
1.0
143
1.0
 70
  1712
 72
     1
 73
     0
 74
     0
  7

 75
     0
147
1.0
148
0.0
149
0.0
100
AcDbLayout
  1
Model
 70
     1
 71
     0
 10
0.0
 20
0.0
 11
279.4
 21
215.9
 12
0.0
 22
0.0
 32
0.0
 14
0.0
 24
0.0
 34
0.0
 15
279.4
 25
215.9
 35
0.0
146
0.0
 13
0.0
 23
0.0
 33
0.0
 16
1.0
 26
0.0
 36
0.0
 17
0.0
 27
1.0
 37
0.0
 76
     0
330
1F
331
29
  0
MLINESTYLE
  5
18
102
{ACAD_REACTORS
330
17
102
}
330
17
100
AcDbMlineStyle
  2
Standard
 70
     0
  3

 62
   256
 51
90.0
 52
90.0
 71
     2
 49
0.5
 62
   256
  6
BYLAYER
 49
-0.5
 62
   256
  6
BYLAYER
  0
ACDBPLACEHOLDER
  5
F
102
{ACAD_REACTORS
330
E
102
}
330
E
  0
SCALE
  5
48
102
{ACAD_REACTORS
330
47
102
}
330
47
100
AcDbScale
 70
     0
300
1:1
140
1.0
141
1.0
290
     1
  0
SCALE
  5
49
102
{ACAD_REACTORS
330
47
102
}
330
47
100
AcDbScale
 70
     0
300
1:2
140
1.0
141
2.0
290
     0
  0
SCALE
  5
4A
102
{ACAD_REACTORS
330
47
102
}
330
47
100
AcDbScale
 70
     0
300
1:4
140
1.0
141
4.0
290
     0
  0
SCALE
  5
4B
102
{ACAD_REACTORS
330
47
102
}
330
47
100
AcDbScale
 70
     0
300
1:5
140
1.0
141
5.0
290
     0
  0
SCALE
  5
4C
102
{ACAD_REACTORS
330
47
102
}
330
47
100
AcDbScale
 70
     0
300
1:8
140
1.0
141
8.0
290
     0
  0
SCALE
  5
4D
102
{ACAD_REACTORS
330
47
102
}
330
47
100
AcDbScale
 70
     0
300
1:10
140
1.0
141
10.0
290
     0
  0
SCALE
  5
4E
102
{ACAD_REACTORS
330
47
102
}
330
47
100
AcDbScale
 70
     0
300
1:16
140
1.0
141
16.0
290
     0
  0
SCALE
  5
4F
102
{ACAD_REACTORS
330
47
102
}
330
47
100
AcDbScale
 70
     0
300
1:20
140
1.0
141
20.0
290
     0
  0
SCALE
  5
50
102
{ACAD_REACTORS
330
47
102
}
330
47
100
AcDbScale
 70
     0
300
1:30
140
1.0
141
30.0
290
     0
  0
SCALE
  5
51
102
{ACAD_REACTORS
330
47
102
}
330
47
100
AcDbScale
 70
     0
300
1:40
140
1.0
141
40.0
290
     0
  0
SCALE
  5
52
102
{ACAD_REACTORS
330
47
102
}
330
47
100
AcDbScale
 70
     0
300
1:50
140
1.0
141
50.0
290
     0
  0
SCALE
  5
53
102
{ACAD_REACTORS
330
47
102
}
330
47
100
AcDbScale
 70
     0
300
1:100
140
1.0
141
100.0
290
     0
  0
SCALE
  5
54
102
{ACAD_REACTORS
330
47
102
}
330
47
100
AcDbScale
 70
     0
300
2:1
140
2.0
141
1.0
290
     0
  0
SCALE
  5
55
102
{ACAD_REACTORS
330
47
102
}
330
47
100
AcDbScale
 70
     0
300
4:1
140
4.0
141
1.0
290
     0
  0
SCALE
  5
56
102
{ACAD_REACTORS
330
47
102
}
330
47
100
AcDbScale
 70
     0
300
8:1
140
8.0
141
1.0
290
     0
  0
SCALE
  5
57
102
{ACAD_REACTORS
330
47
102
}
330
47
100
AcDbScale
 70
     0
300
10:1
140
10.0
141
1.0
290
     0
  0
SCALE
  5
58
102
{ACAD_REACTORS
330
47
102
}
330
47
100
AcDbScale
 70
     0
300
100:1
140
100.0
141
1.0
290
     0
  0
SCALE
  5
59
102
{ACAD_REACTORS
330
47
102
}
330
47
100
AcDbScale
 70
     0
300
1/128" = 1'-0"
140
0.0078125
141
12.0
290
     0
  0
SCALE
  5
5A
102
{ACAD_REACTORS
330
47
102
}
330
47
100
AcDbScale
 70
     0
300
1/64" = 1'-0"
140
0.015625
141
12.0
290
     0
  0
SCALE
  5
5B
102
{ACAD_REACTORS
330
47
102
}
330
47
100
AcDbScale
 70
     0
300
1/32" = 1'-0"
140
0.03125
141
12.0
290
     0
  0
SCALE
  5
5C
102
{ACAD_REACTORS
330
47
102
}
330
47
100
AcDbScale
 70
     0
300
1/16" = 1'-0"
140
0.0625
141
12.0
290
     0
  0
SCALE
  5
5D
102
{ACAD_REACTORS
330
47
102
}
330
47
100
AcDbScale
 70
     0
300
3/32" = 1'-0"
140
0.09375
141
12.0
290
     0
  0
SCALE
  5
5E
102
{ACAD_REACTORS
330
47
102
}
330
47
100
AcDbScale
 70
     0
300
1/8" = 1'-0"
140
0.125
141
12.0
290
     0
  0
SCALE
  5
5F
102
{ACAD_REACTORS
330
47
102
}
330
47
100
AcDbScale
 70
     0
300
3/16" = 1'-0"
140
0.1875
141
12.0
290
     0
  0
SCALE
  5
60
102
{ACAD_REACTORS
330
47
102
}
330
47
100
AcDbScale
 70
     0
300
1/4" = 1'-0"
140
0.25
141
12.0
290
     0
  0
SCALE
  5
61
102
{ACAD_REACTORS
330
47
102
}
330
47
100
AcDbScale
 70
     0
300
3/8" = 1'-0"
140
0.375
141
12.0
290
     0
  0
SCALE
  5
62
102
{ACAD_REACTORS
330
47
102
}
330
47
100
AcDbScale
 70
     0
300
1/2" = 1'-0"
140
0.5
141
12.0
290
     0
  0
SCALE
  5
63
102
{ACAD_REACTORS
330
47
102
}
330
47
100
AcDbScale
 70
     0
300
3/4" = 1'-0"
140
0.75
141
12.0
290
     0
  0
SCALE
  5
64
102
{ACAD_REACTORS
330
47
102
}
330
47
100
AcDbScale
 70
     0
300
1" = 1'-0"
140
1.0
141
12.0
290
     0
  0
SCALE
  5
65
102
{ACAD_REACTORS
330
47
102
}
330
47
100
AcDbScale
 70
     0
300
1-1/2" = 1'-0"
140
1.5
141
12.0
290
     0
  0
SCALE
  5
66
102
{ACAD_REACTORS
330
47
102
}
330
47
100
AcDbScale
 70
     0
300
3" = 1'-0"
140
3.0
141
12.0
290
     0
  0
SCALE
  5
67
102
{ACAD_REACTORS
330
47
102
}
330
47
100
AcDbScale
 70
     0
300
6" = 1'-0"
140
6.0
141
12.0
290
     0
  0
SCALE
  5
68
102
{ACAD_REACTORS
330
47
102
}
330
47
100
AcDbScale
 70
     0
300
1'-0" = 1'-0"
140
12.0
141
12.0
290
     0
  0
ENDSEC
  0
EOF
